Song name
# A B C D E F G H I J K L M N O P Q R S T U V W X Y Z

Ligabue - Quando Tocca A Te tab

~~~~~~~~~~~~~~~~~
QUANDO TOCCA A TE
~~~~~~~~~~~~~~~~~

Accordi forniti da Skid
[NOTA: Secondo me ne manca uno nel ritornello. L'ho indicato con
? e secondo me potrebbe assomigliare ad un G oppure ad un C secondo
Andrea Zavonello. Tanto per cambiare la scelta sta a voi :) ]


[Intro]

e|---------------------------|
B|---------------------------|
G|---------------------------|
D|--9-7-5--------------------|
A|--------7-5--5-5-3--3-3----|
E|---------------------------|

[oppure, grazie a ]

e|--------------------------------|
B|--------------------------------|
G|--------------------------------|
D|--9-7-5--------2--------4-------|
A|--------7-5---3---3---5---5-----|
E|--------------------------------|

[TAB di Alessandro Marini]

[Intro/Riff]SOL                       DO                RE
e:-----------------|-----------------|-----------------|-----------------|
B:--------.---.----|-----------------|-----------------|-----------------|
G:-4-----2---0----.|----.------------|-----------------|-----------------| x
D:---------------2-|---0-----0-----0-|-2-----2-----2---|-4-----4-----4---| 2
A:-----------------|-----------------|-3---------3---3-|-5---------5---5-|
E:-3---------------|-------3-----3---|-----------------|-----------------|
   1 . 2 . 3 . 4 .   1 . 2 . 3 . 4 .   1 . 2 . 3 . 4 .   1 . 2 . 3 . 4 .

[Strum]SOL                              DO                RE
[Piano arrangiato per chitarra]
e:-3-----3-3-------|-----------------|-----------------|-----------------|
B:-3-----3-3-------|-3---1---0-------|-1---------------|-----3-----3-----|
G:-0-----0-0-------|-----------2-0-2-|-0---------------|---2-----2-----2-| x
D:-0-----0-0-------|-----------------|-------2-2-------|-4-----4-----4---| 2
A:-2-----2-2-------|-----------------|-----------------|-----------------|
E:-3-----3-3-------|-----------------|-----------------|-----------------|
   1 . 2 . 3 . 4 .   1 . 2 . 3 . 4 .   1 . 2 . 3 . 4 .   1 . 2 . 3 . 4 .


G
Per ogni giorno caduto dal cielo
C                 D
e capitato bene o male a terra
G
con la tua guerra che non c'e' chi perde
C                D
ne' pero' chi vince

Per ogni amore sbagliato d'un pelo
oppure perso giocandolo a morra
o atteso in coda col tuo numerino
e sei il solo a non spingere

Per ogni ora passata in campo
e non ti sporchi neanche la maglietta
Ci vuol sudore e un minimo di cuore
se non vuoi lo zero a zero

per ogni passo strisciato, stanco
e, nel frattempo, tutto il resto e' fretta
e la scelta e' o resti fuori
o corri per davvero

C               D
C'e' chi corre e chi fa correre
C                 D
e c'e' chi non lo sa
C               D
io so solo che, io so solo che

G              D
Quando tocca a te
Em            ??
quando tocca a te
C              D
quando tocca a te
        C   G  G  C D
tocca a te

Per ogni schiaffo avuto e da avere
e non ti restano piu' guance da offrire
e quella mano sempre troppo uguale
che non sai evitare

Per ogni storia andata a finire
nel modo che fa sempre sbadigliare
e in questa festa sei nell'angolino
e non vuoi disturbare

c'e' chi sceglie e chi fa scegliere
e c'e' chi non lo sa
io so solo che, io so solo che

Quando tocca a te
quando tocca a te
quando tocca a te
tocca a te
Quando tocca a te
quando tocca a te
quando tocca a te
tocca a te
Tap to rate this tab
# A B C D E F G H I J K L M N O P Q R S T U V W X Y Z