Song name
# A B C D E F G H I J K L M N O P Q R S T U V W X Y Z

Ligabue - Rane A Rubiera Blues tab

~~~~~~~~~~~~~~~~~~~~
RANE A RUBIERA BLUES
~~~~~~~~~~~~~~~~~~~~

[NOTA: questo e' solo un'accenno di TAB, basato piu' sull'intuito
       che su una reale trascrizione della canzone. E' sicuramente
       migliorabile]

e|------------------------|---------------------|
B|--------3----3--2----0--|---------------------|
G|-----2--2----2--2----2--|--2------------------|
D|------------------------|---------------------|
A|--0---------------------|-----------0---------|
E|------------------------|------------------0--|



------------------------|---------------------|
--------3----3--2----0--|---------------------|
-----2--2----2--2----2--|--2------------------|
------------------------|---------------------|
--0---------------------|-----------0---------|
------------------------|------------------0--|



------------------------|--------------------|
--------3----3--2----0--|--------------------|
-----2--2----2--2----2--|--2-----------------|
------------------------|--------------------|
--0---------------------|-----------0--------|
------------------------|--------------------|



---------------------|---------------------|
---------------------|---------------------|
--------0------------|--------2------------|
---------------------|---------------------|
-----0---------------|-----0---------------|
--0------------------|--0------------------|

             [.....................................]
     da qui in poi non saprei trascrivere niente di preciso.
Tap to rate this tab
 
# A B C D E F G H I J K L M N O P Q R S T U V W X Y Z