Guitaretab - guitar tabs
Song name
# A B C D E F G H I J K L M N O P Q R S T U V W X Y Z

Ligabue - Voglio Volere tab

Luciano Ligabue  Voglio Volere Guitar Solo

1/02/2008 Italy - Borgomanero
Posed By: Guitar Hero (Tia)

e---------7/8/7------------------------------------------------|
b---8-----------8----6-8---6-8-----------------------/8--------|
g------7-----------7-------------5-7---------/5/4-5/4---5------|
d--------------------------------------5-7-5-------------------|
a--------------------------------------------------------------|
e--------------------------------------------------------------|

e---------------------------------------------------------|
b-------------------------------------------8-------------|
g---5/74/5---12---------5-7^^7-5-7----5/7/9---9----------|
d------------Harm-----/7-------------/7-------------------|
a---------------------------------------------------------|
e---------------------------------------------------------|
[ Tab from: http://www.guitaretab.com/l/ligabue/77673.html ]
e---10-----10--------15^-13/15-13/15-15^-13/15-13-------------|
b------8-------8----------------------------------------------|
g--------9-------9--------------------------------------------|
d-------------------------------------------------------------|
a-------------------------------------------------------------|
e-------------------------------------------------------------|

e----------------------15-17-20---------------------------|
b---15^-13-15----13-15-------------13/15-15-15/18---------|
g-------------14------------------------------------------|
d---------------------------------------------------------|
a---------------------------------------------------------|
e---------------------------------------------------------|

e-----------------------------------------------------------|
b---18-18/20-20^20-18-20---18---15-----13-------------------|
g--------------------------------------------12-------------|           fade out
d-----------------------------------------------------------| Harm
a-----------------------------------------------------------|
e-----------------------------------------------------------|

The chords during the solo are: Dm F C G
Related for Voglio Volere tab