Song name
# A B C D E F G H I J K L M N O P Q R S T U V W X Y Z

Ligeia - Heroin Diaries tab

==========================
|Heroin Diaries by Ligeia|
==========================
Tabbed by CaLL_iT_KaRmA

=======================================================================
Really great band, who just recently got back together! I was surprised
that there were no tabs for these guys. Anyways this was tabbed out
by ear, and I'm sure there are mistakes. If you have any corrections
leave me a comment :)
=======================================================================

(INTRO)

E|-------------------------------|----------------------------|
B|-0-----------------------------|---------------5------7-----|
G|---0----11------12------11-----|-4------7--------0------0---| x 2
D|-----------9-------9-------9---|---5------5-----------------|
A|-7---7--7----7--7----7--7----7-|-3---3--3---3--3---0--3---0-|
E|-------------------------------|----------------------------|


Second time through end with:

E|-----------|
B|-----------|
G|-4~let ring|
D|-5---------|
A|-3---------|
E|-----------|

(CHORUS)

=========================================================================
It's pretty much simple chords with minor variations. Tap the third fret 
on the B string every once in awhile, to give it that little bit extra.
=========================================================================

Chord List
============

Am (012200)
C  (012030)
G  (030023)
Em (000220)


   
(Am)                         (C)                    (G)             (Em)
She's goin' away for awhile. She's gotta get clean. She's Only seventeen.

(Am)                         (C)                    
She's goin' away for awhile. She's gotta get clean. 

(G)                       (Em)
To all the friends we've lost.

(Am)              (C)           (G)
We'll meet again, in this life. Or the next one.


(BRIDGE)

=======================================================
Listen to the song to figure out the strumming pattern.
=======================================================

E|---|----|----|----|---|---|---|---|---|
B|---|----|----|----|---|---|---|---|---|
G|-9-|-11-|-11-|-12-|-5-|-4-|-5-|-7-|-5-|
D|-9-|-9--|-12-|-12-|-5-|-5-|-5-|-5-|-5-|
A|-7-|-7--|-10-|-10-|-3-|-3-|-3-|-3-|-3-|
E|---|----|----|----|---|---|---|---|---|


(CHORUS)


(Am)                        (C)                 (G)               (Em)
He's going away for awhile. He's gotta get clean. He's almost fourty-three.

(Am)                        (C)                   
He's going away for awhile. He's gotta get clean. 

(G)                       (Em)
To all the friends we've lost.

(Am)              (C)           (G)
We'll meet again, in this life. Or the next one.


(INTERLUDE/SOLO)

=============================================================
So for this one guitar plays the BRIDGE again, and another 
guitar plays a solo piece over-top. Not sure if this is 100% 
but it sounds good to me.
=============================================================

E|-------------------|-----------------|----------------------|---------------------|
B|-------------------|-----------------|----------------------|---------------------|
G|-----------------4-|-----4-----7-----|----------------------|---------------------|
D|-2--0-2-4--2-4-5---|-2-4---5-4---5-4-|----------------------|---------------------|
A|-------------------|-----------------|-10-9-10-7--10-9-10-5-|-(slide)-12-14-10----|
E|-------------------|-----------------|----------------------|------------------12-|

then play...                                                      
           
                                                     
E|-12~-12-10------------------------------------|                 
B|-----------12-10------------------------------|                 
G|-----------------12-11------12-11-------------| x 2             
D|-----------------------12-9-------12-9--12\14-|                 
A|----------------------------------------------|                 
E|----------------------------------------------|                 

END WITH:

In this life, we'll meet again.
E|-------------|
B|-------------|
G|-------11h12-|
D|-12h14-------|
A|-------------|
E|-------------|

(OUTRO)

==========================================================
Play this like you would in the chorus, except as you 
strum add some different finger picking stuff.It's really 
up to you, listen to the song to get a good idea.
==========================================================

(G)                      (Em)  (Am)              (C)           
To all the friends we've lost. We'll meet again, in this life. 

(G)
Or in the next one.



Hope you guys enjoy the tab! \m/

** Tabbed 2011 - Corey **


Tap to rate this tab
 
# A B C D E F G H I J K L M N O P Q R S T U V W X Y Z