Guitaretab - guitar tabs
Song name
# A B C D E F G H I J K L M N O P Q R S T U V W X Y Z

Light Funky Ones - Girl On Tv tab

Girl On Tv By LFO
Tabbed by: Boy Friday 

C7  Em    G      D
|-0-|  |-0-|  |-3-|  |-2-|
|-3-|  |-0-|  |-3-|  |-3-|
|-0-|  |-0-|  |-0-|  |-2-|
|-2-|  |-2-|  |-0-|  |-0-|
|-3-|  |-2-|  |-2-|  |-0-|
|-0-|  |-0-|  |-3-|  |-0-|
Pattern:
     C7           Em          C7        G        D
|--------------------------------------------------|
|-------3-----------0--------3------------3--------|
|-----0-----------0-------------0---------0------1-|
|---2----------2----------2----------------------0-|
|-3---------------------3--------------------------|
|----------0---------------------------3-----------|
                          C7
I'm wishin on a falling star
                       C7

wondering where you are.

Chorus:


C7


(I wish) I wish for you on a falling star Em

     Wondering where you are

C7

G
D


Do I ever cross your mind
in the warm sunshine

C7





Em
Shes from
city of Angels



Like Betty Davis, James Dean and Gable C7

     You never know what she means to me

G

D


I fell for the girl
thats on TV.


Verse 1
C7

     I met her at a county Fair Em

     She wore a green dress and everybody was there


--------------------------------------------------------------------------------
D
--------------------------------------------------------------------------------

--------------------------------------------------------------------------------

--------------------------------------------------------------------------------

There (Stood?) a
place
where she looked
into my eyes

C7


Em

Shook her head around
and Im never
gonna be the same again

C7


G

[ Tab from: http://www.guitaretab.com/l/light-funky-ones/27253.html ]
--------------------------------------------------------------------------------

--------------------------------------------------------------------------------

--------------------------------------------------------------------------------

--------------------------------------------------------------------------------

If I ever had to
in all my dreams
be on
a movie screen,
shed be the little lady


Pre-Chorus
C7

     Shooby doo wop and scooby snacks Em

     Met a fly girl and I cant relax

C7 G D
Only problem is shes a movie star OH-OH
C7
My friends they wont believe me.
Em




     If they could only see me.

C7

At the risk of sounding cheesy.
(G)


I think I fell for the girl on TV

Chorus
C7

     Everybody knows her name Em

     They wanna take a picture on a (flashy Cam?)

C7
D




G

But I just wanna
be there when shes
down, Down
(Be
there when

shes down)






C7


Em



I dont want her
her laugh.
autograph, I
just
wanna call
her
up and make

C7

G




If I ever had to be a
movie screen,
shes be the little
lady in all

my dreams







Pre-Chorus
Chorus

(No Guitar)
I wish for you on a falling star (Im wishing on a star) (And Im wondering 
where you are) Wondering where you are (Do I cross your mind in a warm 
sunshine)


Rap:

     C7

Yea- so I wish for you on a bright shining star Em

     Everywhere I look there you are C7
Its the girl in the green dress


G


She took my breath away


D


And now I look to the sky for a better day C7

     To the beat yall and scooby snacks Em

     I met a fly girl and I cant relax C7
If I ever had to be on a movie screen, G

     Cuz shes the little lady in all my dreams Comn

Chorus 2x

Ending:
C7 Em

Related for Girl On Tv tab