Light Of Aiden - Lament tab

This is the for the song Lament by Light of Aiden, specifically the version rearranged
the ODST promotional video
that hit the airwaves a while back. Since the original piece is produced using bagpipes,
drums and gunfire,
this isn't exact, but I feel it captures it pretty well and it's a catchy tune. Video of
tab being played:

http://www.youtube.com/watch?v=xIe8O3MU2iw

Video of the original song:

http://il.youtube.com/watch?v=7Jcive1gsQ0&feature=related

Here's the tab:

E---0--0--7--5--7-------5--3--2----3--5----7--3----2--0----------------|
B----------------------------------------------------------------------|
G----------------------------------------------------------------------|
D----------------------------------------------------------------------|
A----------------------------------------------------------------------|
E----------------------------------------------------------------------|

E0------0------0---0--7----5--3----5--7---5-3-2---3--5---7--3---2--0-|
B--0------0------0-------0------0-------0-------0------0------0------|
G----0------0--------------------------------------------------------|
D--------------------------------------------------------------------|
A--------------------------------------------------------------------|
E---------------------------------------------0------0------0------0-|

(I'm pretty sure this next bit ought to be played twice, but I only hit it once in the 
Your call)

E---0-3---2--0---3--2----0--2---|
B-0-----0------0------0---------|
G-------------------------------|
D-------------------------------|
A-------------------------------|
E-----0------0------0-------0---|

(And the ending)

E---2--2--3--5---7--3---2--0-----0------0-|
B-0------0-----0------0------0-----0----0-|
G------------------------------0-----0--0-|
D-----------------------------------------|
A-----------------------------------------|
E------0-----0------0------0-----0------0-|

The last part I play is a repetition of the whole thing, but with all notes on the high
string moved up 12 frets.
Pretty simple, and whether or not to play them is up to taste.

Please leave comment's or suggestions in the youtube link here

http://www.youtube.com/watch?v=xIe8O3MU2iw

Enjoy

-A. Van Houten
Tap to rate this tab
 
# A B C D E F G H I J K L M N O P Q R S T U V W X Y Z