Song name
# A B C D E F G H I J K L M N O P Q R S T U V W X Y Z

Lightning Dust - Highway tab

-------------------------------------------------------------------------------
                             HIGHWAY - Lightning Dust
-------------------------------------------------------------------------------
Tabbed by: bengtaaron

Tuning: Standard


Intro/Verse:

e|----------------------------------|
B|----------------------------------|
G|-----0-------0-------0-------0----|
D|---2---2---2---2---2---2---2---2--|
A|---------3-------2-------3--------|
E|-0--------------------------------|


Pre-Chorus (0:49)

"With wings she comforts me..."
e|-----------------------------------|
B|-----------------------------------|
G|-----2-------2-------0-------0-----|
D|---2---2---2---2---2---2---2---2---|
A|-0-------0-------3-------3---------|
E|-----------------------------------|


Chorus (1:07)

"And she creeps..."
e|-------------------|
B|-------------------|
G|-----0-------0-----|
D|---2---2---2---2---|
A|-2-------3---------|
E|-------------------|
Tap to rate this tab
# A B C D E F G H I J K L M N O P Q R S T U V W X Y Z