Song name
# A B C D E F G H I J K L M N O P Q R S T U V W X Y Z

Lights - Jess And Jonny tab

Intro:

E|--------------------------------------------------|
B|--------------------------------------------------|
G|--------------------------------------------------|
D|-----1-----1-----1-----1-----1-----1-----1-----1--|
A|--2-----2-----2-----2-----2-----2-----2-----2-----|
E|--------------------------------------------------|

E|-----------------------------------------------------|
B|-----------------------------------------------------|
G|-----------------------------------------------------|
D|-----8-----8-----8-----8-----8-----8-----8-----8-----|
A|--6-----6-----6-----6-----6-----6-----6-----6--------|
E|-----------------------------------------------------|


E|--------------------------------------------------|
B|--------------------------------------------------|
G|--------------------------------------------------|
D|-----1-----1-----1-----1-----1-----1-----1-----1--|
A|--2-----2-----2-----2-----2-----2-----2-----2-----|
E|--------------------------------------------------|


E|-----------------------------------------------------|
B|-----------------------------------------------------|
G|-----------------------------------------------------|
D|-----8-----8-----8-----8-----9-----9-----8-----8-----|
A|--6-----6-----6-----6-----6-----6-----6-----6--------|
E|-----------------------------------------------------|


Verses:


E|--------------------------------------------------|
B|--------------------------------------------------|
G|--------------------------------------------------|
D|-----1-----1-----1-----1-----1-----1-----1-----1--|
A|--2-----2-----2-----2-----2-----2-----2-----2-----|
E|--------------------------------------------------|

E|-----------------------------------------------------|
B|-----------------------------------------------------|
G|-----------------------------------------------------|
D|-----8-----8-----8-----8-----8-----8-----8-----8-----|
A|--6-----6-----6-----6-----6-----6-----6-----6--------|
E|-----------------------------------------------------|

E|-----------------------------------------------------|
B|-----------------------------------------------------|
G|-----------------------------------------------------|
D|-----6-----6-----6-----6-----6-----6-----6-----6-----|
A|--4-----4-----4-----4-----4-----4-----4-----4--------|
E|-----------------------------------------------------|

E|-----------------------------------------------------|
B|-----------------------------------------------------|
G|-----------------------------------------------------|
D|-----8-----8-----8-----8-----9-----9-----8-----8-----|
A|--6-----6-----6-----6-----6-----6-----6-----6--------|
E|-----------------------------------------------------|
Tap to rate this tab
# A B C D E F G H I J K L M N O P Q R S T U V W X Y Z