Song name
# A B C D E F G H I J K L M N O P Q R S T U V W X Y Z

Lights - The Listening tab

Lights
The Listening
Tabbed by U B the band
Tuning E A D G B e

CAPO 3rd FRET

Intro: Guitar 1 (transcribed from synth/keytar)
e|--------------------------------------------------------------------|
B|--------------------------------------------------------------------|
G|--0--------------------------------2--------------------------------|
D|--2--------------------------------2--------------------------------|
A|--3--------------------------------0--------------------------------|
E|--------------------------------------------------------------------|

Intro: Guitar 1 (transcribed from synth/keytar)
e|--------------------------------------------------------------------|
B|--1---------------0----------------1--------------------------------|
G|--0---------------0----------------2---------------2----------------|
D|--2---------------2----------------2---------------3----------------|
A|--3---------------2----------------0---------------3----------------|
E|---------------------------------------------------1----------------|

Verse 1: Guitar 1 (transcribed from synth/keytar)
e|--------------------------------------------------------------------|
B|-----------------------------------0--------------------------------|
G|--0---------------0----------------2---------------2----------------|
D|--2---------------2----------------2---------------2----------------|
A|--3---------------3----------------0---------------0----------------|
E|--------------------------------------------------------------------|

Verse 1: Guitar 1 (transcribed from synth/keytar)
e|--------------------------------------------------------------------|
B|-----------------------------------0--------------------------------|
G|--0---------------0----------------2---------------2----------------|
D|--2---------------2----------------2---------------3----------------|
A|--3---------------3----------------0---------------3----------------|
E|---------------------------------------------------1----------------|

Chorus: Guitar 1 (transcribed from synth/keytar) PLAY 3 TIMES
e|--------------------------------------------------------------------|
B|--1---------------0----------------1---------------1----------------|
G|--0---------------0----------------2---------------2----------------|
D|--2---------------2----------------2---------------3----------------|
A|--3---------------2----------------0---------------3----------------|
E|---------------------------------------------------1----------------|

Verse 2: Guitar 1 (transcribed from synth/keytar)
e|--------------------------------------------------------------------|
B|-----------------------------------0--------------------------------|
G|--0---------------0----------------2---------------2----------------|
D|--2---------------2----------------2---------------2----------------|
A|--3---------------3----------------0---------------0----------------|
E|--------------------------------------------------------------------|

Verse 2: Guitar 1 (transcribed from synth/keytar)
e|--------------------------------------------------------------------|
B|-----------------------------------0--------------------------------|
G|--0---------------0----------------2---------------2----------------|
D|--2---------------2----------------2---------------3----------------|
A|--3---------------3----------------0---------------3----------------|
E|---------------------------------------------------1----------------|

Chorus: Guitar 1 (transcribed from synth/keytar) PLAY 4 TIMES
e|--------------------------------------------------------------------|
B|--1---------------0----------------1---------------1----------------|
G|--0---------------0----------------2---------------2----------------|
D|--2---------------2----------------2---------------3----------------|
A|--3---------------2----------------0---------------3----------------|
E|---------------------------------------------------1----------------|

Bridge: Guitar 1 (transcribed from synth/keytar) PLAY 3 TIMES
e|--3---------------3----------------3---------------1----------------|
B|--3---------------3----------------3---------------3----------------|
G|--2---------------0----------------0---------------2----------------|
D|--3---------------2----------------0---------------0----------------|
A|------------------3----------------2--------------------------------|
E|--------------------------------------------------------------------|

Chorus: Guitar 1 (transcribed from synth/keytar) PLAY 4 TIMES
e|--------------------------------------------------------------------|
B|--1---------------0----------------1---------------1----------------|
G|--0---------------0----------------2---------------2----------------|
D|--2---------------2----------------2---------------3----------------|
A|--3---------------2----------------0---------------3----------------|
E|---------------------------------------------------1----------------|

Outro: Guitar 1 (transcribed from synth/keytar)
e|--------------------------------------------------------------------|
B|--1---------------0----------------1--------------------------------|
G|--0---------------0----------------2---------------0----------------|
D|--2---------------2----------------2---------------3----------------|
A|--3---------------2----------------0---------------3----------------|
E|---------------------------------------------------1----------------|

Finished
Tap to rate this tab
# A B C D E F G H I J K L M N O P Q R S T U V W X Y Z