Song name
# A B C D E F G H I J K L M N O P Q R S T U V W X Y Z

Lights - Saviour Acoustic chords

Highlighted       Show chord diagrams
-------------------------------------------------------------------------------
			                         Saviour Acoustic - LIGHTS
-------------------------------------------------------------------------------
Tabbed by: Mike Valenzuela

Tuning: Standard Capo 1

Intro

e|----------------------------------------------------------------------------|
B|-1-----1------1------1------------------------------------------------------|
G|----------------------------------------------------------------------------|
D|-2-----2------2-------------------------------------------------------------|
A|-3-----2------3------3------2-----------------------------------------------|
E|-3-----x------3------3------3-----------------------------------------------|

Verses

e|---------------------------------1------------------------------------------|
B|-1-----1-----1----1--------------3------------------------------------------|
G|---------------------------------2------------------------------------------|
D|-2-----2-----2--------------------------------------------------------------|
A|-3-----2-----3----3----2----------------------------------------------------|
E|-3-----x-----3----3----3----------------------------------------------------|


             F      G
I just wanna run to you,
                  C/G                     Am
And break off the chains, and throw them away
            F       G
I just wanna be so much,
                  C/G                     Am
And shake off the dust that turned me to rust
            F                  G
Sooner than later, I'll need a saviour
            F
I'll need a saviour...

It won't ever change if you want it to stay the same
I really hate it, but I know it's hard to chose if you're chained
And when it's all you can control, 'cause you've got nothing else to hold
You're getting tighter and tighter, it's getting harder to let it go

             F      G
I just wanna run to you,
                  C/G                     Am
And break off the chains, and throw them away
            F       G
I just wanna be so much,
                  C/G                     Am
And shake off the dust that turned me to rust
            F                  G
Sooner than later, I'll need a saviour
           Am
I'll need a saviour...
G        F                              Am
Stand me up and maybe I won't be so small,
G                 F
Free my hands and feet and maybe I won't always fall
Fm
Save me

Chorus x 2

I'll need a saviour...

End on       ---
             -1-
             ---
             ---
             -3-
             -3-
Tap to rate this tab
 
# A B C D E F G H I J K L M N O P Q R S T U V W X Y Z