Song name
# A B C D E F G H I J K L M N O P Q R S T U V W X Y Z

Lights - Ice tab

Ice By Lights
Lead Synth Arranged for Guitar:

There are no good tabs of what the lead synth is doing during this song so i decided to
it out for everyone to enjoy :). this works really good for an acoustic duo. Eg: one
chords other plays these lead synth parts


Intro:
e]-----3----|------3----|------7---|------10-----|
B]--------5-|---------5-|--------6-|----------12-|
G]---5------|---5-------|---7------|---12--------|
D]----------|-----------|----------|-------------|
A]-3--------|-3---------|-5--------|-10----------|
E]----------|-----------|----------|-------------|

e]------7---|------7---|-----------------10-----|
B]--------6-|--------6-|------12----13------12--|
G]---7------|----7-----|---12----12----12-------|
D]----------|----------|------------------------|
A]-5--------|-5--------|-10---------------------|
E]----------|----------|------------------------|

First Verse:

My heart is frozen...
e]----3---|----3---|-----7---|-10-------10----|
B]------5-|------5-|-------6-|-------------12-|
G]--5-----|--5-----|---7-----|----------------|
D]--------|--------|---------|----------------|
A]-3------|-3------|-5-------|-10-------------|
E]--------|--------|---------|----------------|

What a Disappointment...
e]------7---|------7---|------------------------|
B]--------6-|--------6-|------12----13----12----|
G]---7------|----7-----|---12----12----12----12-|
D]----------|----------|------------------------|
A]-5--------|-5--------|-10---------------------|
E]----------|----------|------------------------|

What I was going...
e]-----3----|------3----|------7---|-----10-----|
B]--------5-|---------5-|--------6-|---------12-|
G]---5------|---5-------|---7------|------------|
D]----------|-----------|----------|------------|
A]-3--------|-3---------|-5--------|-10---------|
E]----------|-----------|----------|------------|

Stood like a stone...
e]------7---|------7---|------------------10----|
B]--------6-|--------6-|------12----13------12--|
G]---7------|----7-----|---12----12----12-------|
D]----------|----------|------------------------|
A]-5--------|-5--------|-10---------------------|
E]----------|----------|------------------------|

You're making it hard...
e]----------|------------|---------|----------|
B]----------|--8---------|---------|----------|
G]-----9----|----9---9---|---------|-5--------|
D]---9---9--|------9-----|-----7---|---7----7-|
A]-7--------|------------|---7---7-|------7---|
E]----------|------------|-5-------|----------|

All I can do is...
e]-----------|-----------|------------------10----|
B]-----------|-8---------|-------12----13------12-|
G]------9----|----9----9-|----12----12----12------|
D]---9-----9-|------9----|------------------------|
A]-7---------|-----------|-10---------------------|
E]-----------|-----------|------------------------|

honestly the synth plays this (or SLIGHT variations) for all the verses so once you get
down you have the whole song. but for chorus and bridge sections just strum the chords
the song (see chord versions of this song for correct chords)

if anyone has any major corrections or comments or such feel free to email me at: 
darkstar04_2@hotmail.com
Tap to rate this tab
 
# A B C D E F G H I J K L M N O P Q R S T U V W X Y Z