Song name
# A B C D E F G H I J K L M N O P Q R S T U V W X Y Z

Lights - Pity Scene tab

This is the tab for Pity Scene based on the Ustream chat
Hope you like it!
Tabbed by Broken Guitar
                                                                                             
E||----------------------------------|---------------------------------|
B||----------0---------------0-------|----------5--------------3-------|
G||------7-----7---------9-----9-----|------0-----0----------0---0-----|
D||----5---5-----5-5-7-7---7-----7---|----4---4-----4------2-------2---|
A||--7-------------7/9-------------9-|--5-------------5-3------------3-|
E||----------------------------------|---------------------------------|


                                                                      
----------------------------------|----------------------------------|
----------0---------------0-------|----------5---------------5-------|
------7-----7---------9-----9-----|------0-----0---------0-----0-----|
----5---5-----5-5-7-7---7-----7---|----4---4-----4-----4---4-----4---|
--7-------------7/9-------------9-|--5-------------5-5-------------5-|
----------------------------------|----------------------------------|


                                                                                               
--------------------------------|--------------------------------|--3----3--3-0--0--0-0-0-0-0-|
---------3--------------3-------|----------5-------3---3-------0-|--3----3--3-0--0--0-0-0-0-0-|
-------0---0----------0---0-----|------0-----0-----0---------5---|--4----4--4-0--0--0-0-0-0-0-|
-----2-------2------2-------2---|----4---4-----4---2-------4-----|--5----5--5-2--2--2-2-2-2-2-|
--3------------3-3------------3/|--5-------------5-3-----5-------|--5----5--5-2--2--2-2-2-2-2-|
--------------------------------|--------------------------------|--3----3--3-0--0--0-0-0-0-0-|


                                                                                       
--0----0--0-0--0--0-0-0-0--|--3----3--3-0--0--0-0-0-0-0-|--0----0--0-0--0--0-0-0-0-x-|
--1----1--1-1--1--1-1-1-1--|--3----3--3-0--0--0-0-0-0-0-|--1----1--1-3--3--3-3-3-3-x-|
--0----0--0-0--0--0-0-0-0--|--4----4--4-0--0--0-0-0-0-0-|--0----0--0-0--0--0-0-0-0-x-|
--2----2--2-2--2--2-2-2-2--|--5----5--5-2--2--2-2-2-2-2-|--2----2--2-4--4--4-4-4-4-x-|
--3----3--3-3--3--3-3-3-3--|--5----5--5-2--2--2-2-2-2-2-|--3----3--3-5--5--5-5-5-5-x-|
---------------------------|--3----3--3-0--0--0-0-0-0-0-|------------5--5--5-5-5-5---|


                                                                                  
--3----3--3-0--0--0-0-0-0-0-|--0----0--0-0--0--0-0-0-0--|-----------------------|
--3----3--3-0--0--0-0-0-0-0-|--1----1--1-1--1--1-1-1-1--|--3----3-3-3-3---------|
--4----4--4-0--0--0-0-0-0-0-|--0----0--0-0--0--0-0-0-0--|--0----0-0-0-0---------|
--5----5--5-2--2--2-2-2-2-2-|--2----2--2-2--2--2-2-2-2--|--4----4-4-4-4---------|
--5----5--5-2--2--2-2-2-2-2-|--3----3--3-3--3--3-3-3-3--|--5----5-5-5-5---------|
--3----3--3-0--0--0-0-0-0-0-|---------------------------|--5----5-5-5-5---------|


                                                                     
----------------------------------|---------------------------------|
----------0---------------0-------|----------5--------------3-------|
------7-----7---------9-----9-----|------0-----0----------0---0-----|
----5---5-----5-5-7-7---7-----7---|----4---4-----4------2-------2---|
--7-------------7/9-------------9-|--5-------------5-3------------3-|
----------------------------------|---------------------------------|


                                                                      
----------------------------------|----------------------------------|
----------0---------------0-------|----------5---------------5-------|
------7-----7---------9-----9-----|------0-----0---------0-----0-----|
----5---5-----5-5-7-7---7-----7---|----4---4-----4-----4---4-----4---|
--7-------------7/9-------------9-|--5-------------5-5-------------5-|
----------------------------------|----------------------------------|


                                                                   
--------------------------------|--------------------------------||
---------3--------------3-------|----------5-------3---3-------0-||
-------0---0----------0---0-----|------0-----0-----0---------5---||
-----2-------2------2-------2---|----4---4-----4---2-------4-----||
--3------------3-3------------3/|--5-------------5-3-----5-------||
--------------------------------|--------------------------------||

Tap to rate this tab
 
# A B C D E F G H I J K L M N O P Q R S T U V W X Y Z