Song name
# A B C D E F G H I J K L M N O P Q R S T U V W X Y Z

Lights - Second Go Acoustic tab

Song: Second Go by Lights
Album: The Listening
Tabbed by: Betty Zhang
Email: just pm me or leave a comment/message/whatever

Tuning: Standard (E,A,D,G,B,e)

This tab is based on her acoustic version right here ---
 http://www.youtube.com/watch?v=hkx8_V1f2OE
I know she doesn't play the full chords, but I tabbed them like that anyway, so listen/watch
the video for how she plays it, strumming, and whatever else and play it however you like.
The tab should be pretty close, the bridge might be off a bit though, so refer back to 
video. Have fun.

For more info about Lights and her music --> http://www.iamlights.com/

   INTRO                    VERSE 1
   Am G  F  C   Am G  F  C   Am G  F  C   Am G  F  C   Am G  F  C
e|-5--3--1--0-|-5--3--1--0-|-5--3--1--0-|-5--3--1--0-|-5--3--1--0-|
B|-5--3--1--1-|-5--3--1--1-|-5--3--1--1-|-5--3--1--1-|-5--3--1--1-|
G|-5--4--2--0-|-5--4--2--0-|-5--4--2--0-|-5--4--2--0-|-5--1--2--0-|
D|-7--5--3--2-|-7--5--3--2-|-7--5--3--2-|-7--5--3--2-|-7--5--3--2-|
A|-7--5--3--3-|-7--5--3--3-|-7--5--3--3-|-7--5--3--3-|-7--5--3--3-|
E|-5--3--1--0-|-5--3--1--0-|-5--3--1--0-|-5--3--1--0-|-5--3--1--0-|
                             How many...

  PRE-CHORUS                            CHORUS
   Dm    Em     F     G      Em    F      Am F  C  G   Am F  C  Em
e|-5-----7----|-1-----3----|-0-----1----|-5--1--3--3-|-5--1--3--0-|
B|-6-----8----|-1-----3----|-0-----1----|-5--1--5--3-|-5--1--5--0-|
G|-7-----9----|-2-----4----|-0-----2----|-5--2--5--4-|-5--2--5--0-|
D|-7-----9----|-3-----5----|-2-----3----|-7--3--5--5-|-7--3--5--2-|
A|-5-----7----|-3-----5----|-2-----3----|-7--3--3--5-|-7--3--3--2-|
E|------------|-1-----3----|-0-----1----|-5--1-----3-|-5--1-----0-|
   How far...                             Give me...

                           POST-CHORUS                VERSE 2
   Am F  G  Em  Am F  G      Am G  F  C   Am G  F  C   Am G  F  C
e|-5--1--3--0-|-5--1--3----|-5--3--1--0-|-5--3--1--0-|-5--3--1--0-|
B|-5--1--3--0-|-5--1--3----|-5--3--1--1-|-5--3--1--1-|-5--3--1--1-|
G|-5--2--4--0-|-5--5--4----|-5--4--2--0-|-5--4--2--0-|-5--4--2--0-|
D|-7--3--5--2-|-7--3--5----|-7--5--3--2-|-7--5--3--2-|-7--5--3--2-|
A|-7--3--5--2-|-7--3--5----|-7--5--3--3-|-7--5--3--3-|-7--5--3--3-|
E|-5--1--3--0-|-5--1--3----|-5--3--1--0-|-5--3--1--0-|-5--3--1--0-|
                         Give me...                    No matter...

                            PRE-CHORUS
   Am G  F  C   Am G  F  C   Dm    Em     F     G      Em    F
e|-5--3--1--0-|-5--3--1--0-|-5-----7----|-1-----3----|-0-----1----|
B|-5--3--1--1-|-5--3--1--1-|-6-----8----|-1-----3----|-0-----1----|
G|-5--4--2--0-|-5--4--2--0-|-7-----9----|-2-----4----|-0-----2----|
D|-7--5--3--2-|-7--5--3--2-|-7-----9----|-3-----5----|-2-----3----|
A|-7--5--3--3-|-7--5--3--3-|-5-----7----|-3-----5----|-2-----3----|
E|-5--3--1--0-|-5--3--1--0-|------------|-1-----3----|-0-----1----|
                             And I'm...

  CHORUS                                              BRIDGE
   Am F  C  G   Am F  C  G   Am F  G  Em  Am F  G      Em
e|-5--1--3--3-|-5--1--3--3-|-5--1--3--0-|-5--1--3----|-0----------|
B|-5--1--5--3-|-5--1--5--3-|-5--1--3--0-|-5--1--3----|-0----------|
G|-5--2--5--4-|-5--2--5--4-|-5--2--4--0-|-5--2--4----|-0----------|
D|-7--3--5--5-|-7--3--5--5-|-7--3--5--2-|-7--3--5----|-2----------|
A|-7--3--3--5-|-7--3--3--5-|-7--3--5--2-|-7--3--5----|-2----------|
E|-5--1-----3-|-5--1-----3-|-5--1--3--0-|-5--1--3----|-0----------|
   Give me...                                               One to...

   Em    C      G     Em     Em    C      G     Em     F
e|-0-----0----|-3-----0----|-0-----0----|-3-----0----|-1-----|
B|-0-----1----|-3-----0----|-0-----1----|-3-----0----|-1-----|
G|-0-----0----|-4-----0----|-0-----0----|-4-----0----|-2-----|
D|-2-----2----|-5-----2----|-2-----2----|-5-----2----|-3-----|
A|-2-----3----|-5-----2----|-2-----3----|-5-----2----|-3-----|
E|-0-----0----|-3-----0----|-0-----0----|-3-----0----|-1-----|

CHORUS/OUTRO
   Am F  C  G   Am F  G      Am F  C  Em  Am F  G      Am F  C  Em
e|-5--1--3--3-|-5--1--3----|-5--1--3--0-|-5--1--3----|-5--1--3--0-|
B|-5--1--5--3-|-5--1--3----|-5--1--5--0-|-5--1--3----|-5--1--5--0-|
G|-5--2--5--4-|-5--2--4----|-5--2--5--0-|-5--2--4----|-5--2--5--0-|
D|-7--3--5--5-|-7--3--5----|-7--3--5--2-|-7--3--5----|-7--3--5--2-|
A|-7--3--3--5-|-7--3--5----|-7--3--3--2-|-7--3--5----|-7--3--3--2-|
E|-5--1-----3-|-5--1--3----|-5--1-----0-|-5--1--3----|-5--1-----0-|
   Give me...                                          Give me...

   Am F  C  Em  Am F  C  Em  Am F  G      Am G  F  C   Am G  F  C
e|-5--1--3--0-|-5--1--3--0-|-5--1--3----|-5--3--1--0-|-5--3--1--0-|
B|-5--1--5--0-|-5--1--5--0-|-5--1--3----|-5--3--1--1-|-5--3--1--1-|
G|-5--2--5--0-|-5--2--5--0-|-5--2--4----|-5--4--2--0-|-5--4--2--0-|
D|-7--3--5--2-|-7--3--5--2-|-7--3--5----|-7--5--3--2-|-7--5--3--2-|
A|-7--3--3--2-|-7--3--3--2-|-7--3--5----|-7--5--3--3-|-7--5--3--3-|
E|-5--1-----0-|-5--1-----0-|-5--1--3----|-5--3--1--0-|-5--3--1--0-|
                                      Give me...

   Am G  F  C   Am G  F  C
e|-5--3--1--0-|-5--3--1--0-|
B|-5--3--1--1-|-5--3--1--1-|
G|-5--4--2--0-|-5--4--2--0-|
D|-7--5--3--2-|-7--5--3--2-|
A|-7--5--3--3-|-7--5--3--3-|
E|-5--3--1--0-|-5--3--1--0-|
                Again...
Tap to rate this tab
 
# A B C D E F G H I J K L M N O P Q R S T U V W X Y Z