Song name
# A B C D E F G H I J K L M N O P Q R S T U V W X Y Z

Lights - Jess And Jonny tab

-------------------------------------------------------------------------------
			                               Jess and Jonny-Lights
-------------------------------------------------------------------------------

The other version of this song is incorrect and I'm pretty sure this is the right version

This pattern is played through the entire song. It's also at 130 Bpm for anyone 
who is wants to know.


e|---------------------------------------------------------------------------|
B|---------------------------------------------------------------------------|
G|---------------------------------------------------------------------------|
D|-----------------------------------------8-----8-----8-----8-----8-----8---|
A|----6-----6-----6-----6-----6-----6----------------------------------------|
E|-7-----7-----7-----7-----7-----7-----9-----9-----9-----9-----9-----9-------|


e|---------------------------------------------------------------------------|
B|---------------------------------------------------------------------------|
G|---------------------------------------------------------------------------|
D|-----------------------------------------8-----8-----9-----8---------------|
A|----6-----6-----6-----6-----6-----6-----------------------------6-----6----|
E|-7-----7-----7-----7-----7-----7-----9-----9-----9-----9-----7-----7-------|


Lyrics 

The car will get us there so you don't have to wait, 
We'll drive, not walk cause I know that you hate, 
The city when it rains, 
But it does it all the time, so 
It don't give any time. 
I love your face, your hair, 
Regardless of your mood, 
We learn to talk it over 
Till' it's smooth. 
It barely makes you brave but I do 
It all the time and I love you cause your mine. 

So, talk to me and make me feel fine, I hope you can, all the time. 

Forgive me if I'm ever on my knee, 
Kiss me if your mad at mommy, 
Love me even if I'm a mess, 
Take me as I am'; bad or best. 
Jonny loves Jess. 

There are a couple things we don't always agree 
On what to watch or what were gonna eat, 
But I'm willing to change, for the sake of me and you, 
cause I know your changing too. 
I try to think of 
How my life would be without you, I would feel so unhappy, 
'Cause you balance me out, 
You're the minus to my plus, when its just the two of us. 

So talk to me and make me feel fine, I hope you can, all the time. 

Love me even if I'm a mess, 
Take me as i am, bad or best, 
Forgive me if I'm ever on my knee, 
Kiss me if your mad at mommy, 
Love me even if I'm a mess, 
Take me as I am; bad or best, 

Forgive me if I'm ever on my knee, 
Kiss me if your mad at mommy. 
Jess loves Johnny. 

Forgive me if I'm ever on my knee, 
Kiss me if your mad at mommy, 
Love me even if I'm a mess, 
Take me as I am; bad or best 
Jonny loves Jess.

Tap to rate this tab
 
# A B C D E F G H I J K L M N O P Q R S T U V W X Y Z