Song name
# A B C D E F G H I J K L M N O P Q R S T U V W X Y Z

Lights - Romance Is tab

Tabbed by: lydiabridget
Email: lydiab96@live.ca

Tuning: Eb Ab Db Gb Bb eb

Intro:
Stumming Pattern: down, down, up, down, up(x4) -note, hit the top stringsof the chord. 

Am Csus C G/B Am Csus C 
e|---------------------------------------------------------------------------|
B|---------------------------------------------------------------------------|
G|---------------------------------------------------------------------------|
D|---------------------------------------------------------------------------|
A|-2-3-5-3-------------------------------------------------------------------|
E|---------------------------------------------------------------------------|


VERSE:
Strumming Pattern: down, down, up, down, up.

e|---------------------------------------------------------------------------|
B|---------------------------------------------------------------------------|
G|---------------------------------------------------------------------------|
D|---------------------------------------------------------------------------|
A|-2---2---2---2|---3---2---0---3|---2--0--0--2|--------2--------------------| (x2)
E|-0---2---3---0|---3---3---3---3|---3--3--3--3|--------0--------------------|

Your three sides of| my excited|     circle two lovers| justapoxed with dorways

Broken window frames colour her eyes in with black lines,
                Csus    G/B
let it all run down,
                Csus    G/B
let it all run down.

CHORUS:

Am              Csus          C                 G/B
It's one way to afford a horizon and in my opinion 
Am                  Csus         C                  G/B         Csus G/B
It's one way to say we're abandoned and we don't belong here at all 

VERSE:

There's no explanation or forewarning, underneath all the crimson linings 
We approach the streets with a clear conscience we'll survive 
Let it all fall down 
Let it all fall down 

CHORUS:

Am              Csus          C                 G/B
It's one way to afford a horizon and in my opinion 
Am                  Csus         C                  G/B         Csus G/B
It's one way to say we're abandoned and we don't belong here at all 

BRIDGE:

Csus        G/B
And romance just is...
Dm          Am
Slow it all down,
G             Am
the damage is done.
Dm             C
Play the music loud, 
G            Am
don't make a sound.
Dm            Am   
Let's raise a toast,
G        Am
to a sad story,
Dm         C    G          Am
in a dirty cup, in a dirty cup.
Am           Dm          Am
You made it, you made it hurt,
G  Am
so bad.
Dm          C
You made it hurt,
G  Am
so bad.


e|---------------------------------------------------------------------------|
B|---------------------------------------------------------------------------|
G|---------------------------------------------------------------------------|
D|---------------------------------------------------------------------------|
A|-2---2---2---2|---3---2---0---3|---2--0--0--2|--------2--------------------|
E|-0---2---3---0|---3---3---3---3|---3--3--3--3|--------0--------------------|

With a little| posion we can| burn this whole place| down to the ground again.
Tap to rate this tab
 
# A B C D E F G H I J K L M N O P Q R S T U V W X Y Z