Lights - River tab

STANDARD TUNING
CAPO 8 FRET

-----------------------------------------------------------11p0---------------|
--------9-----------0------9-------------------9-------------------11p9-------|
---0------0----0------0------0----10------0------0----0-------------------0---|
---------------------------------------11---11-----11---11------11------11-11-|
11---11-----11---11-----11-----11---------------------------------------------|
------------------------------------------------------------------------------|

-----------------------------------------------------------------------------|
--------9-----------0------9s11--9------------9------------9-----9-----------|
---0------0----0------0------------------0------0----0-----0-----------------|
-------------------------------0------11---11-----11---11-11--------0--------|
11---11-----11---11-----11---------------------------------0-----------------|
-----------------------------------------------------------------------------|

------------------------------------------------------------------------------|
--------9-----------9-----------9--------------9-----------9-----------9------|
---0------0----0------0----0------0-------0------0----0------0----0------0----|
---------------------------------------11---11-----11---11-----11---11-----11-|
11---11-----11---11-----11---11-----11----------------------------------------|
------------------------------------------------------------------------------|

------------------------------------------------------------------------------|
--------9-----------9-----------9--------------9-----------9-----------9------|
---0------0----0------0----0------0-------0------0----0------0----0------0----|
---------------------------------------11---11-----11---11-----11---11-----11-|
11---11-----11---11-----11---11-----11----------------------------------------|
------------------------------------------------------------------------------|

-----------------------------------------------------------------------------|
--------9----------------9---------------------------------------------------|
---0------0----------0-------------------------------------------------------|
-0---0------0-0h9-10---------------------------------------------------------|
-----------------------------------------------------------------------------|
-----------------------------------------------------------------------------|

-----------------------------------------------------------11p0---------------|
--------9-----------0------9-------------------9-------------------11p9-------|
---0------0----0------0------0----10------0------0----0-------------------0---|
---------------------------------------11---11-----11---11------11------11-11-|
11---11-----11---11-----11-----11---------------------------------------------|
------------------------------------------------------------------------------|

-----------------------------------------------------------11p0---------------|
--------9-----------0------9s11--9------------9--------------------11p9-------|
---0------0----0------0------------------0------0----0--------------------0---|
-------------------------------0------11---11-----11---11-------11------11-11-|
11---11-----11---11-----11----------------------------------------------------|
------------------------------------------------------------------------------|

-----------------------------------------------------------------------------|
-9-----------9---------------------------------------------------------------|
---0----0------0-------------------------------------------------------------|
-----11---11-----11----------------------------------------------------------|
-----------------------------------------------------------------------------|
-----------------------------------------------------------------------------|

------------------------------------------------------------------------------|
--------9-----------9-----------9--------------9-----------9-----------9------|
---0------0----0------0----0------0-------0------0----0------0----0------0----|
---------------------------------------11---11-----11---11-----11---11-----11-|
11---11-----11---11-----11---11-----11----------------------------------------|
------------------------------------------------------------------------------|

------------------------------------------------------------------------------|
--------9-----------9-----------9--------------9-----------9-----------9------|
---0------0----0------0----0------0-------0------0----0------0----0------0----|
---------------------------------------11---11-----11---11-----11---11-----11-|
11---11-----11---11-----11---11-----11----------------------------------------|
------------------------------------------------------------------------------|

-----------------------------------------------------------------------------|
--------9----------------9---------------------------------------------------|
---0------0----------0-------------------------------------------------------|
-0---0------0-0h9-10---------------------------------------------------------|
-----------------------------------------------------------------------------|
-----------------------------------------------------------------------------|

-----------------------------------------------------------11p0---------------|
--------9-----------0------9-------------------9-------------------11p9-------|
---0------0----0------0------0----10------0------0----0-------------------0---|
---------------------------------------11---11-----11---11------11------11-11-|
11---11-----11---11-----11-----11---------------------------------------------|
------------------------------------------------------------------------------|

-----------------------------------------------------------11p0---------------|
--------9-----------0------9s11--9------------9--------------------11p9-------|
---0------0----0------0------------------0------0----0--------------------0---|
-------------------------------0------11---11-----11---11-------11------11-11-|
11---11-----11---11-----11----------------------------------------------------|
------------------------------------------------------------------------------|

-----------------------------------------------------------11p0---------------|
--------9-----------0------9-------------------9-------------------11p9-------|
---0------0----0------0------0----10------0------0----0-------------------0---|
---------------------------------------11---11-----11---11------11------11-11-|
11---11-----11---11-----11-----11---------------------------------------------|
------------------------------------------------------------------------------|

-----------------------------------------------------------11p0---------------|
--------9-----------0------9s11--9------------9--------------------11p9-------|
---0------0----0------0------------------0------0----0--------------------0---|
-------------------------------0------11---11-----11---11-------11------11-11-|
11---11-----11---11-----11----------------------------------------------------|
------------------------------------------------------------------------------|

-----------------------------------------------------------------------------|
-9-----------9---------------------------------------------------------------|
---0----0------0-------------------------------------------------------------|
-----11---11-----11----------------------------------------------------------|
-----------------------------------------------------------------------------|
-----------------------------------------------------------------------------|

------------------------------------------------------------------------------|
---------11-------------11-------------11-------------------------------------|
---10-------10----10-------10----10-------10----------------------------------|
10----10-------10----10-------10----10-------10-------------------------------|
------------------------------------------------------------------------------|
------------------------------------------------------------------------------|

-----------------------------------------------------------------------------|
------9---------0-----9------------------------------------------------------|
--0-----0---0-----0-----0---0------------------------------------------------|
-----------------------------------------------------------------------------|
0---0-----0---0-----0-----0---0----------------------------------------------|
-----------------------------------------------------------------------------|

-----------------------------------------------------------------------------|
--------9-----------9-----------9--------------------------------------------|
---0------0----0------0----0------0------------------------------------------|
11---11-----11---11-----11---11-----11---------------------------------------|
-----------------------------------------------------------------------------|
-----------------------------------------------------------------------------|

-----------------------------------------------------------------------------|
--------9-----------0-----------0h9------------------------------------------|
---0------0----0------0----0-------------------------------------------------|
-----------------------------------------------------------------------------|
-----------------------------------------------------------------------------|
11---11-----11---11-----11---11----------------------------------------------|

0----------------------------------0-----------------------------------------|
9----------------------------------9--------------------------9--------------|
0----------------------------------0-----------------------------------------|
0----------------------------------11-----------------------------0----------|
11---------------------------------0-----------------------------------------|
-----------------------------------------------------------------------------|

-----------------------------------------------------------11p0---------------|
--------9-----------0------9s11--9------------9--------------------11p9-------|
---0------0----0------0------------------0------0----0--------------------0---|
-------------------------------0------11---11-----11---11-------11------11-11-|
11---11-----11---11-----11----------------------------------------------------|
------------------------------------------------------------------------------|

-----------------------------------------------------------11p0---------------|
--------9-----------0------9-------------------9-------------------11p9-------|
---0------0----0------0------0----10------0------0----0-------------------0---|
---------------------------------------11---11-----11---11------11------11-11-|
11---11-----11---11-----11-----11---------------------------------------------|
------------------------------------------------------------------------------|

-----------------------------------------------------------11p0---------------|
--------9-----------0------9s11--9------------9--------------------11p9-------|
---0------0----0------0------------------0------0----0--------------------0---|
-------------------------------0------11---11-----11---11-------11------11-11-|
11---11-----11---11-----11----------------------------------------------------|
------------------------------------------------------------------------------|

11p0-----------------11p0--------------------0-------------------------------|
--------11p9-----------------11p9------------9-------------------------------|
----------------0--------------------0-------0-------------------------------|
-----11------11---11------11------11---11----0-------------------------------|
--------------------------------------------11-------------------------------|
-----------------------------------------------------------------------------|
Tap to rate this tab
 
# A B C D E F G H I J K L M N O P Q R S T U V W X Y Z