Lights - River Acoustic tab

This tab is pretty much based on this vid:
http://www.youtube.com/watch?v=XL19lEjlx-g&NR=1

Correct me if i'm wrong!
Hope this helps everyone.
Notes relative to the Capo.

Capo 10th fret.
Standard Tuning.

Intro:
e|--------------------------------------------------3p0------------|
B|-------1---------0-----1---------------1----------------3p1------|
G|---0-----0---0-----0-----0---2-----0-----0---0----------------0--|
D|---------------------------------3---3-----3---3------3------3-3-|
A|-3---3-----3---3-----3-----3-------------------------------------|
E|-----------------------------------------------------------------|

e|--------------------------------------------------------------|
B|-------1---------0-----1s3---1----------1---------1~----1-----|
G|---0-----0---0-----0----------------0-----0---0---0~----------|
D|---------------------------0------3---3-----3---3-3~-------0--|
A|-3---3-----3---3-----3----------------------------0~----------|
E|--------------------------------------------------------------|

Verse:
e|------------------------------------------------------------------|
B|-------1---------1---------1-----------1---------1---------1------|
G|---0-----0---0-----0---0-----0-----0-----0---0-----0---0-----0----|
D|---------------------------------3---3-----3---3-----3---3-----3--|
A|-3---3-----3---3-----3---3-----3----------------------------------|
E|------------------------------------------------------------------| x2

e|--------------------------|
B|-------1---------------1--|
G|---0-----0---------0------|
D|-0---0-----0-0h1-2--------|
A|--------------------------|
E|--------------------------|

Chorus:
e|--------------------------------------------------3p0------------|
B|-------1---------0-----1---------------1----------------3p1------|
G|---0-----0---0-----0-----0---2-----0-----0---0---------------0---|
D|---------------------------------3---3-----3---3------3-----3-3--|
A|-3---3-----3---3-----3-----3-------------------------------------|
E|-----------------------------------------------------------------|

e|---------------------------------------------------3p0------------|
B|-------1---------0-----1s3---1----------1----------------3p1------|
G|---0-----0---0-----0----------------0-----0---0---------------0---|
D|---------------------------0------3---3-----3---3------3-----3-3--|
A|-3---3-----3---3-----3--------------------------------------------|
E|------------------------------------------------------------------|

e|-----------------------|
B|-1---------1-----------|
G|---0---0-----0---------|
D|-----3---3-----3-------|
A|-----------------------|
E|-----------------------|

REPEAT VERSE

Second Chorus:
e|--------------------------------------------------3p0------------|
B|-------1---------0-----1---------------1----------------3p1------|
G|---0-----0---0-----0-----0---2-----0-----0---0---------------0---|
D|---------------------------------3---3-----3---3------3-----3-3--|
A|-3---3-----3---3-----3-----3-------------------------------------|
E|-----------------------------------------------------------------|

e|---------------------------------------------------3p0------------|
B|-------1---------0-----1s3---1----------1----------------3p1------|
G|---0-----0---0-----0----------------0-----0---0---------------0---|
D|---------------------------0------3---3-----3---3------3-----3-3--|
A|-3---3-----3---3-----3--------------------------------------------|
E|------------------------------------------------------------------|

e|--------------------------------------------------3p0------------|
B|-------1---------0-----1---------------1----------------3p1------|
G|---0-----0---0-----0-----0---2-----0-----0---0---------------0---|
D|---------------------------------3---3-----3---3------3-----3-3--|
A|-3---3-----3---3-----3-----3-------------------------------------|
E|-----------------------------------------------------------------|

e|---------------------------------------------------3p0------------|
B|-------1---------0-----1s3---1----------1----------------3p1------|
G|---0-----0---0-----0----------------0-----0---0---------------0---|
D|---------------------------0------3---3-----3---3------3-----3-3--|
A|-3---3-----3---3-----3--------------------------------------------|
E|------------------------------------------------------------------|

e|-----------------------|
B|-1---------1-----------|
G|---0---0-----0---------|
D|-----3---3-----3-------|
A|-----------------------|
E|-----------------------|


Bridge:
e|-----------------------------------|
B|-------3---------3---------3-------|
G|---2-----2---2-----2---2-----2-----|
D|-2---2-----2---2-----2---2-----2---|
A|-----------------------------------|
E|-----------------------------------|

e|----------------------------------|
B|-------1---------0-----1----------|
G|---0-----0---0-----0-----0---0----|
D|----------------------------------|
A|-0---0-----0---0-----0-----0---0--|
E|----------------------------------|

e|---------------------------------------|
B|---------1-----------1----------1------|
G|----0------0----0------0---0------0----|
D|--3---3------3----3------3---3------3--|
A|---------------------------------------|
E|---------------------------------------|

e|----------------------------------|
B|--------1---------0---------0h1---|
G|---0------0---0-----0---0---------|
D|----------------------------------|
A|----------------------------------|
E|-3---3------3---3-----3---3-------|

Final Chorus: Tap the guitar once after you strum the second chord.
e|-0~---------------------------------0~-----------------------|
B|-1~---------------------------------1~-------------1---------|
G|-0~---------------------------------0~-----------------------|
D|-0~---------------------------------3~-----------------0-----|
A|-3~---------------------------------0~-----------------------|
E|-------------------------------------------------------------|

e|---------------------------------------------------3p0------------|
B|-------1---------0-----1s3---1----------1----------------3p1------|
G|---0-----0---0-----0----------------0-----0---0---------------0---|
D|---------------------------0------3---3-----3---3------3-----3-3--|
A|-3---3-----3---3-----3--------------------------------------------|
E|------------------------------------------------------------------|

e|---------------------------------------------------3p0------------|
B|-------1---------0-----1---------------1-----------------3p1------|
G|---0-----0---0------0----0---2-----0-----0----0---------------0---|
D|---------------------------------3---3------3---3------3-----3-3--|
A|-3---3-----3---3-----3-----3--------------------------------------|
E|------------------------------------------------------------------|

e|---------------------------------------------------3p0------------|
B|-------1---------0-----1s3---1----------1----------------3p1------|
G|---0-----0---0-----0----------------0-----0---0---------------0---|
D|---------------------------0------3---3-----3---3------3-----3-3--|
A|-3---3-----3---3-----3--------------------------------------------|
E|------------------------------------------------------------------|

e|-3p0--------------3p0----------------0~--|
B|-------3p1--------------3p1----------1~--|
G|-------------0----------------0------0~--|
D|-----3-----3---3------3-----3---3----0~--|
A|-------------------------------------3~--|
E|-----------------------------------------|
Tap to rate this tab
 
# A B C D E F G H I J K L M N O P Q R S T U V W X Y Z