Song name
# A B C D E F G H I J K L M N O P Q R S T U V W X Y Z

Lights - Bed Intruder tab

Email me at redoctane95@htomail.com if you have any comments
Capo 5
Intro]
       Am            C               F                G
e]--------------------------------------------------------------------|
B]------1-------------1-----------------------------------------------|
G]--------2--------------0------------2---------------4---------------|
D]---2------------2----------------------3---------------5------------|
A]-0------------3-----------------3----------------5------------------|
E]------------------------------1---------------3---------------------|

Rest Of Song]
          Am                         C
e]--------------------------------------------------------------------|
B]---------1---------------------------1--0---------------------------|
G]------2-----2----2----------------0--------0-----0------------------|
D]----2---------2----------------2--------------2---------------------|
A]--0-------------------------3---------------------------------------|
E]--------------------------------------------------------------------|

             F                                      G
e]--------------------------------------------------------------------|
B]--------------------------------------------------------------------|
G]-------------2----------2------------------------4-----------4------|
D]---------3-------3----------------------------5-------5-------------|
A]------3-------------3---------------------5---------------5---------|
E]---1----------------------------------3-----------------------------|


Strummed Version/Rhythm]

Am    C    Barred F   Barred G
Tap to rate this tab
 
# A B C D E F G H I J K L M N O P Q R S T U V W X Y Z