Song name
# A B C D E F G H I J K L M N O P Q R S T U V W X Y Z

Lights - My Boots tab

MF Magazine Acoustic Version :)
Tabbed by Brokengeetar!
Capo 10   Standard Tunning

Intro
    F              C
e|-------0------0---------------|
B|----1------1--------1--0--1---|
G|---2--2---2--2-----0-0--0--0--|
D|--3------3--------2---2--2--2-|
A|-----------------3------------|
E|------------------------------|

Verse
   "You might"    "What goes on"
    F              C
e|-------0------0---------------|
B|----1------1--------1--0--1---|
G|---2--2---2--2-----0-0--0--0--|
D|--3------3--------2---2--2--2-|   x4
A|-----------------3------------|
E|------------------------------|
Chorus
   "Winter left"    "got my"
    F                 Am      Em
e|---------------------------------|
B|-----------------------1---------|
G|------2-------2-------2-2------0-|
D|----3--3-3--3--3-----2---2----2--|  x2
A|---3-3--3--3-3--3---0--------2---|
E|--1-------1------1----------0----|

"its a love hate"   "Cuz I"  "Dance" "Boo-oo-oo-oo-ooots
    Am               Em       G       F
e|----------------------------------------------------|
B|-----1-1----1-1-------------------------------------|
G|----2-2-2--2-2-2---------0------0-------2------2----|
D|---2------2-----------2-2------0-0-----3--3---3--3--|
A|--0------0-----------2-2------2-------3----3-3----3-|
E|-------------------0--------3-------1------1--------|
Verse
    F              C
e|-------0------0---------------|
B|----1------1--------1--0--1---|
G|---2--2---2--2-----0-0--0--0--|
D|--3------3--------2---2--2--2-|   x3
A|-----------------3------------|
E|------------------------------|
                   "Stop And Stare"
    F              C           G
e|-------0------0-----------------------|
B|----1------1--------1-----------------|
G|---2--2---2--2-----0-0-----------0----|
D|--3------3--------2------------0--0-0-|
A|-----------------3------------2-2--2--|
E|-----------------------------3--------|
Chorus
   "Winter left"    "got my"
    F                 Am      Em
e|---------------------------------|
B|-----------------------1---------|
G|------2-------2-------2-2------0-|
D|----3--3-3--3--3-----2---2----2--|  x2
A|---3-3--3--3-3--3---0--------2---|
E|--1-------1------1----------0----|

"its a love hate"   "Cuz I"  "Dance" "Boo-oo-oo-oo-ooots
    Am               Em       G       F
e|----------------------------------------------------|
B|-----1-1----1-1-------------------------------------|
G|----2-2-2--2-2-2---------0------0-------2------2----|
D|---2------2-----------2-2------0-0-----3--3---3--3--|
A|--0------0-----------2-2------2-------3----3-3----3-|
E|-------------------0--------3-------1------1--------|
Bridge

    Am      C      F      Em
e|-------------------------------|
B|-----1-1-----1-----------------|
G|----2-2-2---0-0-----2-------0--|
D|---2-------2-------3--3---2--2-|  x2
A|--0-------3-------3------2-2---|
E|-----------------1------0------|
Chorus
   "Winter left"    "got my"
    F                 Am      Em
e|---------------------------------|
B|-----------------------1---------|
G|------2-------2-------2-2------0-|
D|----3--3-3--3--3-----2---2----2--|  x4
A|---3-3--3--3-3--3---0--------2---|
E|--1-------1------1----------0----|

"its a love hate"   "Cuz I"  "Dance" "Boots"
    Am               Em       G       Am
e|--------------------------------------|
B|-----1-1----1-1---------------------1-|
G|----2-2-2--2-2-2---------0------0---2-|
D|---2------2-----------2-2------0-0--2-|
A|--0------0-----------2-2------2-------|
E|-------------------0--------3---------|
Tap to rate this tab
 
# A B C D E F G H I J K L M N O P Q R S T U V W X Y Z