Lights - February Air chords

Highlighted       Show chord diagrams
*CAPO ON 4 FRET*
Standard tuning

well, i just wanted to put out the acoustic ep version. so, i learned this song
from ear but it somewhat sounds similar to the song on the acoustic ep. so enjoi:D!

 c/G    G   Gsus2  Em/D
|--3--|--3--|--3--|--3--|
|--3--|--3--|--3--|--3--|
|--0--|--0--|--2--|--0--|
|--2--|--0--|--0--|--2--|
|--3--|--2--|--0--|--2--|
|--X--|--3--|--2--|--0--|


Intro: 2x

e----x---------------------------------x--------------|
B----3-------3-----0-------------------1----1----0----|
G----0------------------0--------------0------------0-|
D----0---------------------------------0--------------|
A----2---------------------------------3--------------|
E----3---------------------------------x--------------|
   G                              Cadd9

e----x---------------------------------x--------------|
B----3-------3-----0-------------------1----1----0----|
G----0------------------0--------------0------------0-|
D----0---------------------------------2--------------|
A----2---------------------------------3--------------|
E----3---------------------------------x--------------|
    G                                  C


Gm             Gsus2
If you don't believe me,
   Em/D              c/G
If you don't like my plans,
Gm          Gsus2
You mustn't tell me,
Em/D                 c/G
How I know your face like the back of my hands.
Gm          Gsus2
We walk the city,
Em/D            c/G
I talk to you, understand
Gm           Gsus2
So won't you tell me.
Em/D                       c/G
How I know this place like the back of my hands.
Gm Gsus2 Em/D c/G
My arms  get  cold,
Gm              Em/D
In February air.
Gm                Gsus2   Em/D    c/G
Please don't lose hold of me, out there.
Gm                Gsus2
And I know you're near me.
Em/D       c/G
I know you understand.
Gm              Gsus2
Say that you're with me.
Em/D                 c/G
Say you know my face like the back of your hands.
(4 times)
Gm Gsus2 Em/D c/G
My arms  get  cold,
Gm              Em/D
In February air.
Gm           Gsus2        c/G
Please don't lose hold of me out there.

Gm              Gsus2          Em/D
And I know this place like the back of my hands
Tap to rate this tab
 
# A B C D E F G H I J K L M N O P Q R S T U V W X Y Z