Lights - Up Up And Away tab

This is the way I sometimes play it and it sounds more like the piano version :) I 
tabbed this myself by ear. Despite the fact that it may seem hard, it's actually 
pretty easy once you get the hang of it B)

-----------------------------------------------------------------------------
			     Up Up and Away - LIGHTS
-----------------------------------------------------------------------------
Tabbed by: dancinglobsters

Tuning: Standard

CAPO ON 3rd fret


INTRO:
e|-----------|------------|-----------|
B|-------0---|------------|-----------|
G|---------2-|------2--0--|--------0--|
D|----2------|----0-------|------0----|  x2
A|--2--------|--0---------|----2------|
E|-----------|------------|--3--------|

(Basically the verses are just the same)

VERSE 1:
e|-----------|------------|-----------|
B|-------0---|------------|-----------|
G|---------2-|------2--0--|--------0--|
D|----2------|----0-------|------0----| x8
A|--2--------|--0---------|----2------|
E|-----------|------------|--3--------|
We had a rocket
that fell out of orbit
We couldn't stop it
we couldn't control it
We ran a good course
it was a good flight
But I felt the hard force...

e|-----------|------------|-----|
B|-------0---|------------|-----|
G|---------2-|------2--0--|--0--|
D|----2------|----0-------|--0--|
A|--2--------|--0---------|--2--|
E|-----------|------------|--3--|
  Holding me too tight.

CHORUS:
      C        G        D
e|--------|--------|-------------|
B|--1--1--|--3--3--|--3--3--3--3-|
G|--0--0--|--0--0--|--2--2--2--2-|
D|--2--2--|--0--0--|--0--0--0--0-| x2
A|--3--3--|--------|--0--0--0--0-|
E|--------|--3--3--|-------------|
We are rockets, in the sky
we are planets, passing by

Alt. C        G         D
e|--------|--------|--2--2--2--2-|
B|--1--1--|--0--0--|--3--3--3--3-|
G|--0--0--|--0--0--|--2--2--2--2-|
D|--2--2--|--0--0--|--0--0--0--0-|
A|--0--0--|--------|-------------|
E|--------|--3--3--|-------------|
Up up and away

     C        G   D/F#
e|--------|-----|--2--|
B|--1--1--|--2--|--3--|
G|--0--0--|--0--|--2--|
D|--2--2--|--0--|-----|
A|--------|-----|-----|
E|--3--3--|--3--|--2--|
Forget me, go your own way

Interlude:
e|-----------|------------|-----------|
B|-------0---|------------|-----------|
G|---------2-|------2--0--|--------0--|
D|----2------|----0-------|------0----|  x2
A|--2--------|--0---------|----2------|
E|-----------|------------|--3--------|


VERSE 2:
e|-----------|------------|-----------|
B|-------0---|------------|-----------|
G|---------2-|------2--0--|--------0--|
D|----2------|----0-------|------0----| x8
A|--2--------|--0---------|----2------|
E|-----------|------------|--3--------|
Sometimes the heart cools
After the ship goes
And sometimes the mind fools,

e|-----------|------------|-----|
B|-------0---|------------|-----|
G|---------2-|------2--0--|--0--|
D|----2------|----0-------|--0--|
A|--2--------|--0---------|--2--|
E|-----------|------------|--3--|
 only the body knows.

[CHORUS]

INTERLUDE:
e|-------------|-------------|------------|-------------|
B|-------0-0---|-------0-0---|------0-0---|-------0-0---|
G|-----------2-|-----------2-|----------2-|-----------2-|
D|-------------|-------------|------------| ------------| x2
A|-------------|-------------|------------|-------------|
E|--3-3--------|--3-3--------|--0-0-------|--0-0--------|


e|------------|------------|------------|------------|----0---|
B|------0-0---|------0-0---|------0-0---|------0-0---|--2-----|
G|----------2-|----------2-|----------2-|----------2-|------0-|
D|------------|------------|--0-0-------|--0-0-------|--------| let last note
A|--3-3-------|--3-3-------|------------|------------|--------| ring
E|------------|------------|------------|------------|--------|

CHORUS:
    C      G      D
e|-----|-----|-------------|
B|--1--|--3--|--3--3--3--3-|
G|--0--|--0--|--2--2--2--2-|
D|--2--|--0--|--0--0--0--0-| x2
A|--3--|-----|--0--0--0--0-|
E|-----|--3--|-------------|
We are rockets in the... sky

      C        G        D
e|--------|--------|-------------|
B|--1--1--|--3--3--|--3--3--3--3-|
G|--0--0--|--0--0--|--2--2--2--2-|
D|--2--2--|--0--0--|--0--0--0--0-|
A|--3--3--|--------|--0--0--0--0-|
E|--------|--3--3--|-------------|
We are planets passing by

Alt. C        G         D
e|--------|--------|--2--2--2--2-|
B|--1--1--|--0--0--|--3--3--3--3-|
G|--0--0--|--0--0--|--2--2--2--2-|
D|--2--2--|--0--0--|--0--0--0--0-|
A|--0--0--|--------|-------------|
E|--------|--3--3--|-------------|
Up up and away

     C        G        D
e|--------|--------|-------------|
B|--1--1--|--3--3--|--3--3--3--3-|
G|--0--0--|--0--0--|--2--2--2--2-|
D|--2--2--|--0--0--|--0--0--0--0-|
A|--3--3--|--------|--0--0--0--0-|
E|--------|--3--3--|-------------|
Forget me, go your own way

      C        G        D
e|--------|--------|-------------|
B|--1--1--|--3--3--|--3--3--3--3-|
G|--0--0--|--0--0--|--2--2--2--2-|
D|--2--2--|--0--0--|--0--0--0--0-| x2
A|--3--3--|--------|--0--0--0--0-|
E|--------|--3--3--|-------------|
We are rockets, in the sky
we are planets, passing by

Alt. C        G         D
e|--------|--------|--2--2--2--2-|
B|--1--1--|--0--0--|--3--3--3--3-|
G|--0--0--|--0--0--|--2--2--2--2-|
D|--2--2--|--0--0--|--0--0--0--0-|
A|--0--0--|--------|-------------|
E|--------|--3--3--|-------------|
Up up and away

     C        G   D/F#
e|--------|-----|--2--|
B|--1--1--|--2--|--3--|
G|--0--0--|--0--|--2--|
D|--2--2--|--0--|-----|
A|--------|-----|-----|
E|--3--3--|--3--|--2--|
Forget me, go your own way

ENDING:
e|-----------|------------|-----------|
B|-------0---|------------|-----------|
G|---------2-|------2--0--|--------0--|
D|----2------|----0-------|------0----|
A|--2--------|--0---------|----2------|
E|-----------|------------|--3--------|

e|-----------|------------|----|
B|-------0---|------------|----|
G|---------2-|------2--0--|----|
D|----2------|----0-------|----|
A|--2--------|--0---------|----|
E|-----------|------------|--3-| Let last note ring
Tap to rate this tab
 
# A B C D E F G H I J K L M N O P Q R S T U V W X Y Z