Lights - Year Of The Cure tab

Okay, I saw a chord version of the song, played it,
decided it was a little too simplified and mapped it out myself.
It's in standard tuning, it sounds cool in Eb too.  Put a capo on if you want, it's 
regularly played on keytar so be creative with it!
Email me for any feedback, I take critisism well.
redoctane95@hotmail.com.
Hope this helps.  Too lazy to strum it out, strum it any way you want, like I said, be creative :)

Intro riff, as close to piano as possible, some guitar twists though...

e[--0----3---2--------------0---------------------0------3--2---------|
b[--0------------3----------0-----0---3-----------3------------3------|
g[--0----------------0------2------------0--------0-------------------|
d[--2-----------------------0----------------4----4---4---------------|
a[--2-----------------------------------------------------------------|
e[--0-----------------------------------------------------------------|
    Em                    D6sus2                 Bmin

e[--0-----------------|
b[--2---------0-------|
g[--0------0----------|
d[--2-----------------|
a[--3-----------------|
e[--3-----------------|
    C


Okay, the rest is just a strum along for all the parts, come up with your own strum pattern.

Intro/verses:

e[-----0---------0----------2----------0------------------------------|
b[-----0---------3----------3----------1------------------------------|
g[-----0---------2----------2----------0------------------------------|
d[-----2---------0----------4----------2------------------------------|
a[-----2--------------------2----------3------------------------------|
e[-----0-------------------------------3------------------------------|
      Em        Dsus      Bm7sus       C

Pre-chorus:

e[---0------------3-------------0--------------------------------------|
b[---1------------3-------------3--------------------------------------|
g[---2------------2-------------2--------------------------------------|
d[---2------------0-------------0--------------------------------------|
a[---0-----------------------------------------------------------------|
e[----------------3----------------------------------------------------|
    Am          Gadd7         Dsus2

Chorus:
                                        /2nd ending (Last line of chorus)
e[---0------3---------2----------------/--------0-----------------------|
b[---0------3---------3---------2------/--------1-----------------------|
g[---0------0---------2---------2------/--------0-----------------------|
d[---2------0---------0---------2------/--------2-----------------------|
a[---2------2--------------------------/--------3-----------------------|
e[---0------3--------------------------/--------3-----------------------|
    Em      G         D         A               C

Bridge - "I know I'm not ready to go home..." :

e[---0-------2-------3--------0------------------------------------------|
b[---0-------3-------3--------1------------------------------------------|
g[---0-------2-------0--------0------------------------------------------|
d[---2-------0-------0--------2------------------------------------------|
a[---2---------------2--------3------------------------------------------|
e[---0---------------3--------3------------------------------------------|
    Em       D       G        C
Tap to rate this tab
 
# A B C D E F G H I J K L M N O P Q R S T U V W X Y Z