Lights - In The Dark I See tab

Lights: In The Dark I See (capo 6)

Tabbed by: Tylernol

Not 100% sure about the strumming, do mine or whatever strumming you like,
im pretty confident in the chords though, but still they could be off,
comment and rate (y) :)

Song Order:

Verse Part 1 x4
Verse Part 2 
Verse Part 1 x2
Verse Part 2 
Chorus       
Post-Chorus  
Verse Part 1 x2
Verse Part 2 
Verse Part 1 x2
Verse Part 2 
Chorus       
Post-Chorus
Bridge
End

Verse Part 1:
e|-0--0--0-0-0-0-0--0-0---0--0--0-0-0-0-0--0-0-|
B|-1--1--1-1-1-1-1--1-1---0--0--0-0-0-0-0--0-0-|
G|-0--0--0-0-0-0-0--0-0---0--0--0-0-0-0-0--0-0-|
D|-2--2--2-0-2-0-2--2-2---2--2--2-0-2-0-2--2-2-|
A|-3--3--3-3-3-3-3--3-3---2--2--2-2-2-2-2--2-2-|
E|-3--3--3-3-3-3-3--3-3---0--0--0-0-0-0-0--0-0-|

Verse Part 2:
e|-0--0--0-0-0-0-0--0-0---0-|
B|-1--1--1-1-1-1-1--1-1---0-|
G|-2--2--2-2-2-2-2--2-2---0-|
D|-2--2--2-2-2-2-2--2-2---2-|
A|-0--0--0-0-0-0-0--0-0---2-|
E|------------------------0-|


Chorus:
e|-1--1--1-1-1-1-1--1-1---0--0--0-0-0-0-0--0-0-|
B|-1--1--1-1-1-1-1--1-1---1--1--1-1-1-1-1--1-1-|
G|-2--2--2-2-2-2-2--2-2---2--2--2-2-2-2-2--2-2-|
D|-3--3--3-3-3-3-3--3-3---2--2--2-2-2-2-2--2-2-|
A|-3--3--3-3-3-3-3--3-3---0--0--0-0-0-0-0--0-0-|
E|-1--1--1-1-1-1-1--1-1------------------------|

e|-0--0--0-0-0-0-0--0-0---3--3--3-3-3-3-3--3-3-|
B|-0--0--0-0-0-0-0--0-0---0--0--0-0-0-0-0--0-0-|
G|-0--0--0-0-0-0-0--0-0---0--0--0-0-0-0-0--0-0-|
D|-2--2--2-0-2-0-2--2-2---0--0--0-0-0-0-0--0-0-|
A|-2--2--2-2-2-2-2--2-2---2--2--2-2-2-2-2--2-2-|
E|-0--0--0-0-0-0-0--0-0---3--3--3-3-3-3-3--3-3-|

e|-1--1--1-1-1-1-1--1-1---0--0--0-0-0-0-0--0-0-|
B|-1--1--1-1-1-1-1--1-1---1--1--1-1-1-1-1--1-1-|
G|-2--2--2-2-2-2-2--2-2---0--0--0-0-0-0-0--0-0-|
D|-3--3--3-3-3-3-3--3-3---2--2--2-2-2-2-2--2-2-|
A|-3--3--3-3-3-3-3--3-3---3--3--3-3-3-3-3--3-3-|
E|-1--1--1-1-1-1-1--1-1---3--3--3-3-3-3-3--3-3-|

e|-0--0--0-0-0-0-0--0-0---3-|
B|-0--0--0-0-0-0-0--0-0---0-|
G|-0--0--0-0-0-0-0--0-0---0-|
D|-2--2--2-0-2-0-2--2-2---0-|
A|-2--2--2-2-2-2-2--2-2---2-|
E|-0--0--0-0-0-0-0--0-0---3-|

Post-Chorus:
e|-0--0--0-0-0-0-0--0-0---0--0--0-0-0-0-0--0-0-|
B|-1--1--1-1-1-1-1--1-1---1--1--1-1-1-1-1--1-1-|
G|-0--0--0-0-0-0-0--0-0---2--2--2-2-2-2-2--2-2-|
D|-2--2--2-2-2-2-2--2-2---2--2--2-2-2-2-2--2-2-|
A|-3--3--3-3-3-3-3--3-3---0--0--0-0-0-0-0--0-0-|
E|-3--3--3-3-3-3-3--3-3------------------------|

e|-0--0--0-0-0-0-0--0-0---3--3--3-3-3-3-3--3-3-|
B|-0--0--0-0-0-0-0--0-0---0--0--0-0-0-0-0--0-0-|
G|-0--0--0-0-0-0-0--0-0---0--0--0-0-0-0-0--0-0-|
D|-2--2--2-0-2-0-2--2-2---0--0--0-0-0-0-0--0-0-|
A|-2--2--2-2-2-2-2--2-2---2--2--2-2-2-2-2--2-2-|
E|-0--0--0-0-0-0-0--0-0---3--3--3-3-3-3-3--3-3-|

Bridge:                                      End:
e|-0~---0~---0~---0~---0~---0~---0~---3~-|   |-0~~~-|
B|-1~---1~---1~---0~---1~---1~---0~---0~-|   |-1~~~-|
G|-0~---0~---2~---0~---0~---2~---0~---0~-|   |-0~~~-|
D|-3~---2~---3~---2~---2~---2~---2~---0~-|   |-2~~~-|
A|-3~---3~---3~---2~---3~---0~---2~---2~-|   |-3~~~-|
E|-0~---3~---0~---0~---3~--------0~---3~-|   |-3~~~-|

Tap to rate this tab
 
# A B C D E F G H I J K L M N O P Q R S T U V W X Y Z