Song name
# A B C D E F G H I J K L M N O P Q R S T U V W X Y Z

Lights - Toes Acoustic tab

Let me know if there are any corrections...

Artist: Lights
Song: Toes
Album: Siberia
Tuning: Standard (Capo 1st Fret)

Reference Video: http://www.youtube.com/watch?v=gi5WAV6J6yw&feature=related

Intro

e |-0----3----0--------------------|
B |-0----0----4--------------------|
G |-0----0----0--------------------|
D |-2----0----5---5/6--6--6/8--8---|
A |-2----2----6--------------------| 	
E |-0----3----6--------------------|

Verse 1

e |-0----3----0----|
B |-0----0----4----|
G |-0----0----0----|
D |-2----0----5----|
A |-2----2----6----| 	
E |-0----3----6----|

If you are a cliff hanger ending
Iím the one that doesnít know anything
Like a magpie and a ring

e |-0---0---0------|
B |-4---1---0------|
G |-0---0---0------|
D |-5---2---2------|
A |-6---3---2------| 	
E |-6---3---0------|

I am always going to be looking right to you

Chorus

e |-0----0---0-----3---0-----|
B |-4----1---1-----0---4-----|
G |-0----0---0-----0---0-----|
D |-5----2---0-----0---5-----|
A |-6----3---3-----2---6-----| 	
E |-6----3---3-----3---6-----|

Oh, you capture my attention
Carefully listening
Donít wanna miss a thing
Keeping my eyes on you

Interlude

e |-0---0---0--------------------|
B |-0---0---0--------------------|
G |-0---0---0--------------------|
D |-2---2---4---5/6--6--6/8--8---|
A |-2---3---5--------------------| 	
E |-0---3---5--------------------|

Got me on my toes

Verse 2

e |-0----3----0----|
B |-0----0----4----|
G |-0----0----0----|
D |-2----0----5----|
A |-2----2----6----| 	
E |-0----3----6----|

If I were to hideout on the sea
Youíd be whispering from the westerlies
And any book Iíll ever read
Youíd be the line that sticks out to me

e |----0---0------|
B |----1---0------|
G |----0---0------|
D |----2---2------|
A |----3---2------| 	
E |----3---0------|

Out to me

Chorus (x2)

Got me on my toes (x4)

e |--0---0----0----0---|
B |--1---0----4----0---|
G |--0---0----0----0---|
D |--2---2----5--0h5---|
A |--3---2----6----6---| 	
E |--3---0----6----6---|

Chorus (x2)

e |-0----0---0---3---0-----|
B |-4----1---1---0---4-----|
G |-0----0---0---0---0-----|
D |-5----2---0---0---5-----|
A |-6----3---3---2---6-----| 	
E |-6----3---3---3---6-----|

Oh, you capture my attention
Carefully listening
Donít wanna miss a thing
Keeping my eyes on you

Interlude 

e |-0---0---0--------------------|
B |-0---0---0--------------------|
G |-0---0---0--------------------|
D |-2---2---4---5/6--6--6/8--8---|
A |-2---3---5--------------------| 	
E |-0---3---5--------------------|

Got me on my toes (x3)
Tap to rate this tab
 
# A B C D E F G H I J K L M N O P Q R S T U V W X Y Z