Song name
# A B C D E F G H I J K L M N O P Q R S T U V W X Y Z

Lights - Fall Back Down tab

Hey! This is my first Tab brought to you. Emotion...
This is the first song I wanted to learn and as I was a beginner I didn't have a capo.
So I found this way of playing, and I believe no capo is actually needed!
After months of laziness, here I post it!

I hope this is accurate enough and that you'll enjoy playing this song as much as I do.

Have fun!


Intro and Chorus:

e|-----------2--------|
B|-2----3----3---2----|
G|-2----2----2---2----|   X2
D|-2---------4---2----|
A|-----------2--------|
E|-----------2--------|

Verse1:

e|-------------2-2---------|
B|-2-2---3-3---3-3---2-2---|
G|-2-2- -2-2---2-2---2-2---|  X2
D|-2-2---------4-4---2-2---|
A|-------------2-2---------|
E|-------------2-2---------|

e|-------------2-2---4-4---4-2-|
B|-2-2---3-3---3-3---5-5---5-3-|
G|-2-2- -2-2---2-2---4-4---4-2-|
D|-2-2---------4-4---6-6---6-4-|
A|-------------2-2---4-6---6-4-|
E|-------------2-2---4-6---6-4-|

Chorus

Bridge:

e|-5----5---------------------------------------------------------------------|
B|-5----5---------3-----------------------------------------------------------|
G|-7----6----1----2-----------------------------------------------------------|
D|-7----7----2----------------------------------------------------------------|
A|-5----7----2----------------------------------------------------------------|
E|-5----5---------2-----------------------------------------------------------|


Solo (use only the two strings noted):

e|--------------------------0-0-0-0-0------|
B|-2-2-2-2-2-3-2--2-2-2-2-3-2-2-2-2-2-3-2--|
G|-2-2-2-2-2-2-2--2-2-2-2-2-----------2-2--|   X2
D|-----------------------------------------|
A|-----------------------------------------|
E|-----------------------------------------|

e|-5-5-5--4-2-4-2-2-0---5-5-5---4-2-0----------------------|
B|-7-7-7--5-3-5-3-3-2---7-7-7---5-3-2----------------------|
G|---------------------------------------------------------|
D|---------------------------------------------------------|
A|---------------------------------------------------------|
E|---------------------------------------------------------|

e|----------------------0-0---------|
B|-2-2-2-2-2-3-2--2-2-3-2-2-3-2-----|
G|-2-2-2-2-2-2-2--2-2-2-----2-2-----|
D|----------------------------------|
A|----------------------------------|
E|----------------------------------|



Verse 2= Same chords as Verse 1

Chorus.

Don't worry about me I'm gonna make it alright
Got my enemies cross haired and in my sight
I take a bad situation gonna make it right
In the shadow of darkness I stand in the light

See it's our style and I'll keep true
I had a bad year a lot I've gone through
I've been knocked out, beat down, black and blue
She's not the one coming back for you
She's not the one coming back for you

If I fall back down
You're gonna help me back up again
If I fall back down
You're gonna be my friend

If I fall back down
You're gonna help me back up again
If I fall back down
You're gonna be my friend

It takes disaster to learn a lesson
We're gonna make it through the darkest nights
Some people betray one and cause treason
We're gonna make everything alright

Well the worst of times now they don't faze me
Even if I look and act really crazy
On my way down she betrayed me
Now my vision is no longer hazy

I'm very lucky to have my crew
They stood by me when she flew
I've been knocked out, beat down, black and blue
She's not the one coming back for you
She's not the one coming back for you
Tap to rate this tab
 
# A B C D E F G H I J K L M N O P Q R S T U V W X Y Z