Song name
# A B C D E F G H I J K L M N O P Q R S T U V W X Y Z

Lights - Flux And Flow Acoustic chords

Highlighted       Show chord diagrams
Flux and Flow - Lights

Tabbed by: TheProphetOfRa

Tuning: Standard
Capo: 3rd

Relevant video: www.youtube.com/watch?v=hLO1mnH6W1l

Chords (relveant to capo):

        E     : 010330
        Gsus4 : 050770
        Bb    : 004550
        Am    : 01220x
        F     : 112331
        Dm    : 1320xx
        Em    : 000220
        G     : 334553

Last run of verse before chorus may have extra E just listen and see what sounds best.

Intro and Verse are arpeggiated. Find your own rhythm that sounds best when your singing 
or playing along to a vocal track (She sticks to the 4 middle strings, my arpeggios are 
at the bottom).

Chorus, pluck the root then the high strings on the next beat.

Intro:
E - E - Gsus4- Bb - E
E - Gsus4 - Bb - E x4

Verse:
E - Gsus4 - Bb - E x8

Chorus:
Am - F - Dm - Em
Am - F - G - G

Verse:
E - Gsus4 - Bb - E x8

Chorus:
Am - F - Dm - Em
Am - F - G - Em
Am - F - Dm - Em
Am - F - G - G

Verse:
E - Gsus4 - Bb - E x16


Verse arpeggio:

e|------------------------------------------|
B|----1-----5-----0----1--1----5----0-----1-|
G|--0-----0-----3----0--0----0----3-----0---|
D|---3-----7-----5----3--3----7----5-----3--|
A|-3-----7-----5----3-------7----5-----3----|
E|------------------------------------------|

Chorus picking:

e|---0--1--1--0--0--1--3--3-|
B|---1--1--3--0--1--1--3--3-|
G|---3--2--2--0--3--2--4--4-|
D|-------0------------------|
A|-0-----------0------------|
E|----1-----0-----1--3--3---|
Tap to rate this tab
 
# A B C D E F G H I J K L M N O P Q R S T U V W X Y Z