Song name
# A B C D E F G H I J K L M N O P Q R S T U V W X Y Z

Lights - Where The Fence Is Low Acoustic tab

Where The Fence Is Low (Siberia Acoustic Version) - Lights
Tab by: akd56205

This is my first tab, but the ones for this song posted on here werent exactly
right and were a bit confusing in my opinion.
When playing the second verse and chorus, it sounds good if you hammer on your
middle finger on the D string when playing the C/G and Em chords.

Tuning: Standard; Capo on 4th fret; tab and chords relative to capo.

Chords:
C/G          Em             D            G           Am
e|----0----| e|----0----| e|----2----| e|----3----| e|----0----|
B|----1----| B|----0----| B|----3----| B|----3----| B|----1----|
G|----0----| G|----0----| G|----2----| G|----0----| G|----2----|
D|----2----| D|----2----| D|----0----| D|----0----| D|----2----|
A|----3----| A|----2----| A|----0----| A|----2----| A|----0----|
E|----3----| E|----0----| E|----0----| E|----3----| E|----0----|

************************************
| h   hammer-on
| ~   hold note/vibrato
************************************

Intro:
e|--------------------------------------------------------2~----------------|
B|--------0~~----------3~~----------0~~-----------3-----0-------------------|
G|------2------------0------------2-------------0-----2---------------------|
D|----0------------2------------0-------------2-----0-----------------------|
A|--3------------2------------3-------------2-------------------------------|
E|-------------0--------------------------0---------------------------------|

Verse 1:
e|------------------------------------------------------------2~------------|
B|------------0~~----------3~~----------0~~-----------3-----0---------------|
G|----------2------------0------------2-------------0-----2-----------------|
D|--------0------------2------------0-------------2-----0-------------------|
A|------3------------2------------3-------------2---------------------------|
E|----------------0---------------------------0-----------------------------|
 fence is       rising         comes       the skies in.

e|-----------------------------------------------------------2~-------------|
B|-----------0~~----------3~~----------0~~-----------3-----0----------------|
G|---------2------------0------------2-------------0-----2------------------|
D|-------0------------2------------0-------------2-----0--------------------|
A|-----3------------2------------3-------------2----------------------------|
E|----------------0--------------------------0------------------------------|
  on the        safety        between       know maybe.

Chorus:
e|--------------------------------------------------------------------------|
B|-----------0-----------------------------1-0h1---1~-----------------------|
G|-----------------------------------------------2--------------------------|
D|-------0-------0~---------------------------------------------------------|
A|-----------------------------------0--------------------------------------|
E|--3-----------------------------------------------------------------------|
  rope        here.                own        here.

e|--------------------------------------------------------------------------|
B|-----------0-----------------------------1-0h1---1~-----------------------|
G|-----------------------------------------------2--------------------------|
D|-------0-------0~---------------------------------------------------------|
A|-----------------------------------0--------------------------------------|
E|--3-----------------------------------------------------------------------|
  hope        here.                own        here.

e|---------3---2h3---3------------------------------------------------------|
B|------1----------1---------------------------1----------------------------|
G|----------------------------------------0--------0~-----------------------|
D|--------------------------------------------------------------------------|
A|--0--------------------------------3--------------------------------------|
E|--------------------------------------------------------------------------|
  rope here                      fence  is   low.

e|--------------------------------------------------------------------------|
B|---------3-----3------3--------3-----0-----0------------------------------|
G|-------0----0-------0---0----5----5-----5---------------------------------|
D|-----5------------5--------5----------------------------------------------|
A|---5---------------------0------------------------------------------------|
E|--------------------------------------------------------------------------|
           Where        is low.
e|--------------------------------------------------------------------------|
B|---------3-----3------3--------3---0~-------------------------------------|
G|-------0----0-------0---0----5--------------------------------------------|
D|-----5------------5--------5----------------------------------------------|
A|---5---------------------0------------------------------------------------|
E|--------------------------------------------------------------------------|
           Where        is low.


Verse 2:
        C/G
Each shadow I walk
                   Em
From the edge of the forest
                C/G
And the shape of the hands
                 Em     D
That break the ground for us.
            C/G
The fear that contains
             Em
And binds like a blessing
             C/G
Ive been here before
            Em    D
Then again Im guessing.


Chorus:
               G
Im off on my rope here
               C/G
Im off on my own here
               G
And I find my hope here
            C/G
I find my own here
            Am
Im off on my rope here
           C/G
Where the fence is low
G           C/G
Where the fence is low
G              C/G
Where the fence is low


G   C/G    X4


Bridge:
G    C/G   G   C/G
Mmm, Mmm, Mmm, Mmm
G    C/G   G   C/G
Low, Low, Low, Low


Chorus:
               G
Im off on my rope here
               C/G
Im off on my own here
               G
And I find my hope here
            C/G
I find my own here
            Am~~
Im off on my rope here
           C/G~~
Where the fence is low



Here are the full lyrics to Verse 1:

Where the fence is low
And the water is rising
And the fire comes down
And the dark fills the skies in.
One foot on the ledge
Im feeling for safety
Somewhere between sure
And I dont know, maybe.
Tap to rate this tab
 
# A B C D E F G H I J K L M N O P Q R S T U V W X Y Z