Song name
# A B C D E F G H I J K L M N O P Q R S T U V W X Y Z

Lightspeed Champion - Let The Bitches Die tab

e|----------------------------------|
B|--2-2-2-2-2-2-2-2-2-2-2-2-2-2-2-2-|
G|--2-2-2-2-2-2-2-2-2-2-2-2-2-2-2-2-|
D|----------------------------------|
A|-0-0-0-0-0-0-0-0------------------|
E|-----------------2-2-2-2-2-2-2-2--| x4


e|----------------------------------|
B|------------------2-2-2-2-2-2-2-2-|
G|--7-7-7-7-7-7-7-7-2-2-2-2-2-2-2-2-|
D|--7-7-7-7-7-7-7-7-----------------|
A|-5-5-5-5-5-5-5-5-0-0-0-0-0-0-0-0--|
E|----------------------------------|


e|-0-x-0-------------|
B|-0-7-2-------------|
G|-1-7-2-------------|
D|-2-7-2-------------|
A|-2-5-0-------------|
E|-0-x-x-------------|
   E D A

think thats it jus listen to the song to get the structure
Tap to rate this tab
# A B C D E F G H I J K L M N O P Q R S T U V W X Y Z