Guitaretab - guitar tabs
Song name
# A B C D E F G H I J K L M N O P Q R S T U V W X Y Z

Lightspeed Champion - Madame Van Damme tab

i had to figure this one out =]
i figured it out from i live recording so it might differ from other versions

intro and verse:

e|---------------------------------------------------------|
B|---------------------------------------------------------|
G|-2-2-2-2-2-2-2-2-2-2-3-3-3-3-3-3-3-3-3----0-3-0----------|
D|-3-3-3-3-3-0-0-0-0-0-5-5-5-4-4-4-3-3-3-0h2---------------|
A|---------------------------------------------------------|
E|---------------------------------------------------------|
  F          Dm        Gm                C 


chorus:

F                     Dm
kill me baby wont you kill me


Gm                    C
kill me baby wont you kill me


F                     Dm
kill me baby wont you kill me


Gm                    C
kill me baby wont you kill me


Solo:
[ Tab from: http://www.guitaretab.com/l/lightspeed-champion/110152.html ]
e|-----------------------------------------------------------|
B|-----------------------------------------------------------|
G|-----0-2-0------------------0-2-0---2-3-2-0------3-0-------|
D|-3-3-------3-2-2~-0-2-0-2-3-------4---------3-2------------|
A|------------------------------------------------3----------|
E|-----------------------------------------------------------|

e|-----------------------------------------------------------|
B|----------10-------------------------------10-11-10--------|
G|-10-10-12----12-10-9-9~----9----9-10-12-12----------12-10--|
D|------------------------12---12----------------------------|
A|-----------------------------------------------------------|
E|-----------------------------------------------------------|

e|------------------------------------------------------------|
B|------------------------------------------------------------|
G|-10-12-10-12-9-10-9-----------------------------------------|
D|------------------------------------------------------------|
A|------------------------------------------------------------|
E|------------------------------------------------------------|



Bridge:

e|---------------5-5-5-5-5-5--5-5-4-3-3-3-3-3-3-3--------------
B|-6-6-6-6-6-6-6-5-5-5-5-5-5--5-5-4-3-3-3-3-3-3-3-5-5-5-5-5-5--
G|-7-7-7-7-7-7-7-5-5-5-5-5-5--5-5-4-3-3-3-3-3-3-3-5-5-5-5-5-5--
D|-7-7-7-7-7-7-7-7-7-7-7-7-7--7-7-6-5-5-5-5-5-5-5-5-5-5-5-5-5--
A|-5-5-5-5-5-5-5-7-7-7-7-7-7--7-7-6-5-5-5-5-5-5-5-3-3-3-3-3-3--
E|---------------5-5-5-5-5-5--5-5-4-3-3-3-3-3-3-3--------------
Related for Madame Van Damme tab
Madame Van Damme chords by Lightspeed Champion