Song name
# A B C D E F G H I J K L M N O P Q R S T U V W X Y Z

Lightspeed Champion - Midnight Surprise tab

Help us improve GuitareTab! Take a short survey!
Hey, someone requested that I tab this up after I mentioned it whilst commenting on a 
for the main part of the song, so here it is!
 To tell the truth, I didnt work this out myself, my guitar teacher helped me with it, 
my ears are rubbish, I cant work stuffs out!
 Anyway, here it is, it sounds pretty good to me, but this is my first tab, so go easy 
me!

Standard tuning: EADGBe

(key of E major for anyone who wants to improvise extra bits)

1st guitar

|-12129-----------12----------11--------9----------|
|--9--------129----9---9---------9----------12---9--|
|--9----------------9------9---------9---------------|
|----------------------------------------------------|
|----------------------------------------------------|
|----------------------------------------------------|

|--1211p911---9-------9---------|
|------------------12------109---|
|---------------------------------|
|---------------------------------|
|---------------------------------|
|---------------------------------|

|---------------------------------------------12-------|
|----------9t10------------9t10---10---1212b(14)r129-|
|---911-----------911--------------------------------|
|------------------------------------------------------|
|------------------------------------------------------|
|------------------------------------------------------|

On that bit with the bend on the 12th fret, bend the note, and let it hold while you 
the 12 on the e string, before returning the bend.
 If you listen to the recording you should get what I mean. And thats it!
 Then id has a sort of slow down before the acoustic outro.

 There is also a second guitar in the background which plays during some of the breaks 
the solo.
 Listen to the recording to get the right places.

2nd Guitar
|--------------------------|
|--------------------------|
|--------------------------|
|-------------6t7----------|
|----7---9---------7-------|
|--------------------------|

|-----------------------------|
|-----------------------------|
|---------------6-------------|
|---6---7---9------9----------|
|-----------------------------|
|-----------------------------|

Tab legend:
t - trill (like rapid hammer-on/pull-offs)
b- bend
r- bend return
h- hammer-on
p- pull-off
Related for Midnight Surprise tab