Guitaretab - guitar tabs
Song name
# A B C D E F G H I J K L M N O P Q R S T U V W X Y Z

Lightspeed Champion - Falling Into Shit tab

Tuning: standard


intro:
e|-------------------------------|
B|-------3---------------3-------|
G|---4-----4---4-----4-----4---4-|
D|-5---5-----5-----5---5-----5---|
A|-------------------------------|
E|-------------------------------|
[ Tab from: http://www.guitaretab.com/l/lightspeed-champion/97771.html ]
main part:
e|--------------------------------------------------------------------|
B|-------3--------------5-------------------3-------3---------3-------|
G|---4-----4---4----5-----5---5---7--5----4---4---4---4---4-----4---4-|
D|-5---5-----5----7---7-----7-----9--7--5-------4-------2---2-----2---|
A|--------------------------------------------------------------------|
E|--------------------------------------------------------------------|

e|----------------------------------------------|
B|-------3--------------5-------------5---------|
G|---4-----4---4----5-----5---5---5-----5---5---|x2
D|-4---4-----4----7---7-----7---7---7-----7-----|
A|----------------------------------------------|
E|----------------------------------------------|

End:
e|-------|
B|-3-----|
G|-4-----| let ring
D|-5-----|
A|-------|
E|-------|

Lyrics:
this is all going all to shit
what can i do
its me and you
ruined
ruined
i wont hold my guitar
die i will break your neck
just go away
take away
my ambisions
Related for Falling Into Shit tab
Falling Into Shit chords by Lightspeed Champion