Guitaretab - guitar tabs
Song name
# A B C D E F G H I J K L M N O P Q R S T U V W X Y Z

Lightyear - Kid Dynamite tab

Kid Dynamite by Lightyear


Intro brass part
1:-----------------------------------------|
2:-----------------------------------------|
3:-----------------------------------------|
4:---11--9--8--9/8---9--6------------------| x 3
5:-9---------------9-----------------------|
6:-----------------------------------------|

1:-----------------------------------------|
2:-----------------------------------------|
3:-----------------------------------------|
4:---11--9--8--9/8---9--9--11--11--13--11--| x1
5:-9---------------9-----------------------|
6:-----------------------------------------|

Verse

1:-----------------------------------------|
2:-----------------------------------------|
3:-----------------------------------------|
4:--11--11--4--6---------------------------|
5:--9---9---2--4---------------------------|
6:-----------------------------------------|

[ Tab from: http://www.guitaretab.com/l/lightyear/115250.html ]
Chorus
1:-----------------------------------------|
2:-----------------------------------------|
3:-----------------------------------------|
4:--11--8---6---4---6----------------------|
5:--9---6---4---2---4----------------------|
6:-----------------------------------------|

Interlude
1:-----------------------------------------|
2:-----------------------------------------|
3:-----------------------------------------|
4:--11--11--4--6---------------------------|
5:--9---9---2--4---------------------------|
6:-----------------------------------------|

Pre end brass part
1:-----------------------------------------------------------------------|
2:-----------------------------------------------------------------------|
3:-----------------------------------------------------------------------|
4:---------------------------------9--9--11--9-----11--11--13--11--------|
5:--9--9--11--9-----9--9--11--9------------------------------------------|
6:-----------------------------------------------------------------------|

End part
1:-------------------------------------|
2:-------------------------------------|
3:-------------------------------------|
4:--11--4--6---------------------------|
5:--9---2--4---------------------------|
6:-------------------------------------|

Just figure out the amount of times you strum them, it aint hard.

My first tab. Great song.

-David Nash.
Related for Kid Dynamite tab
Advertisement will be closed in 10 seconds