Song name
# A B C D E F G H I J K L M N O P Q R S T U V W X Y Z

Lightyear - They Left Today tab

lightyear-they left today

Album-call of the weasal clan

tabber-basket case


intro:

|-6-6--6-6--8--8-----------
|-6-6--8-8--10-10----------
|-7-7--8-8--10-10----------
|-8-8----------------------
|--------------------------
|--------------------------


verse:

|-6----8----6----8---------
|-6----9----8----10--------
|-7----10---8----10--------
|-8----10------------------
|--------------------------
|--------------------------


Chorus:

|-----------------------
|-----------------------
|-------------8---------
|-8---8---5---8---------
|-8---8---5---6---------
|-6---5---3-------------

Bridge:

|--------------------
|--------------------
|-----7-------3------
|-3---7---7---3------
|-3---5---7---1------
|-1-------5----------
Tap to rate this tab
# A B C D E F G H I J K L M N O P Q R S T U V W X Y Z