Song name
# A B C D E F G H I J K L M N O P Q R S T U V W X Y Z

Like A Storm - Change Tomorrow tab

Band - Like A Storm
Song - Change Tomorrow
By - LaRx kIMkLOz
e-Mail - kIMkLOz_4@ymail.com
Facebook - https://www.facebook.com/kIMkLOz
Lyrics at the end of the tab

Guitar 1 - Lead Guitar
Guitar 2 - Rhythm Guitar


Guitar 1 - Lead Guitar
Tuning: Drop C (C G C F A D)

(guitar comes in at 0:20)
Intro:
D|----------------------------------------------------------|
A|----------------------------------------------------------|
F|-------------4-----4--4h6-4-------------------------------|
C|------6----6----------4-------6-6-6---6-h7-----4---4-h6---|
G|--4-4----4-----0-0------------------4------2-2---2--------|
C|----------------------------------------------------------|

Verse:
D|---------------------------------------------------------|
A|---------------------------------------------------------|
F|-------------------------4-----------------4---4h6--4----|
C|---------------6------6------------------------4---------|
G|---------4--4------4-----------------0--0----------------|
C|---------------------------------------------------------|
for the first time in years there's a light up ahead

D|--------------------------------------------|
A|--------------------------------------------|
F|--------------------------------------------|
C|-----6-6-6-----6-h7--------4-----4-h6-------|
G|------------4--------2--2-----2-------------|
C|--------------------------------------------|
it's calling         (pulling me closer)

D|----------------------------------------------|
A|----------------------------------------------|
F|-------------------4------------4---4h6--4----|
C|---------6------6-------------------4---------|
G|---4--4------4------------0--0----------------|
C|----------------------------------------------|
    reborn within now I'm shedding my skin

D|--------------------------------------------|
A|--------------------------------------------|
F|--------------------------------------------|
C|-----6-6-6-----6-h7--------4-----4-h6-------|
G|------------4--------2--2-----2-------------|
C|--------------------------------------------|
it's falling     (the weight off my shoulders)

Pre-chorus:
D|------------------------------------------------|
A|------------------------------------------------|
F|----2--2-2-2--2-2-2--2-2-4--4-4-4--4-4-4--4-4---|
C|----2--2-2-2--2-2-2--2-2-4--4-4-4--4-4-4--4-4---|
G|----0--0-0-0--0-0-0--0-0-2--2-2-2--2-2-2--2-2---|
C|------------------------------------------------|
cause I can't stay       chained to my secrets

D|----------------------------------------------|
A|----------------------------------------------|
F|--6--6-6-6--6-6-6--6-6-4--4-4-4--4-4-4--4-4---|
C|--6--6-6-6--6-6-6--6-6-4--4-4-4--4-4-4--4-4---|
G|--4--4-4-4--4-4-4--4-4-2--2-2-2--2-2-2--2-2---|
C|----------------------------------------------|
no I can't stay  I'm bound by my regrets

D|------------------------------------------------|
A|------------------------------------------------|
F|----2--2-2-2--2-2-2--2-2------------------------|
C|----2--2-2-2--2-2-2--2-2-4--4-4-4--4-4-4--4-4---|
G|----0--0-0-0--0-0-0--0-0-4--4-4-4--4-4-4--4-4---|
C|-------------------------4--4-4-4--4-4-4--4-4---|
I can't erase  all of my errors

D|-----------------------------------------------------|
A|-----------------------------------------------------|
F|----2--2-2-2--2-2-2--2-2-4--4--4--4--4--4--4--4--4---|
C|----2--2-2-2--2-2-2--2-2-4--4--4--4--4--4--4--4--4---|
G|----0--0-0-0--0-0-0--0-0-2--2--2--2--2--2--2--2--2---|
C|-----------------------------------------------------|
      (those   days   are gone forever)

Chorus:
D|--------------------------------------------|
A|--------------------------------------------|
F|-----------------------4--4-4-4--4-4-4--4---|
C|---2--2-2-2--2-2-2--2--4--4-4-4--4-4-4--4---|
G|---2--2-2-2--2-2-2--2--2--2-2-2--2-2-2--2---|
C|---2--2-2-2--2-2-2--2-----------------------|
     I can change        I can change

D|--------------------------------------------|
A|--------------------------------------------|
F|--6--6-6-6--6-6-6--6--2--2-2-2--2-2-2--2----|
C|--6--6-6-6--6-6-6--6--2--2-2-2--2-2-2--2----|
G|--4--4-4-4--4-4-4--4--0--0-0-0--0-0-0--0----|
C|--------------------------------------------|
tomorrow

D|--------------------------------------------|
A|--------------------------------------------|
F|-----------------------4--4-4-4--4-4-4--4---|
C|---2--2-2-2--2-2-2--2--4--4-4-4--4-4-4--4---|
G|---2--2-2-2--2-2-2--2--2--2-2-2--2-2-2--2---|
C|---2--2-2-2--2-2-2--2-----------------------|
     I can change        I can change

D|---------------------------------------------|
A|---------------------------------------------|
F|--2--2-2-2--2-2-2--2--2--2-2-2-4-4-4--4--4---|
C|--2--2-2-2--2-2-2--2--2--2-2-2-4-4-4--4--4---|
G|--0--0-0-0--0-0-0--0--0--0-0-0-2-2-2--2--2---|
C|---------------------------------------------|
tomorrow

Verse 2: (same as verse 1)
on my knees in the rain with my head hung in shame
just crawling stalling (all alone in my ways)
memories I can't erase faces I couldn't face
haunt me (my life laid to waste)

Pre-chorus 2: (same as pre-chorus 1)
cause I can't stay chained to my secrets
no I can't stay I'm bound by my regrets
I need a break it's now or never
(yesterday's gone forever)

Chorus 2:
D|--------------------------------------------|
A|--------------------------------------------|
F|-----------------------4--4-4-4--4-4-4--4---|
C|---2--2-2-2--2-2-2--2--4--4-4-4--4-4-4--4---|
G|---2--2-2-2--2-2-2--2--2--2-2-2--2-2-2--2---|
C|---2--2-2-2--2-2-2--2-----------------------|
     I can change        I can change

D|--------------------------------------------|
A|--------------------------------------------|
F|--6--6-6-6--6-6-6--6--2--2-2-2--2-2-2--2----|
C|--6--6-6-6--6-6-6--6--2--2-2-2--2-2-2--2----|
G|--4--4-4-4--4-4-4--4--0--0-0-0--0-0-0--0----|
C|--------------------------------------------|
tomorrow

D|--------------------------------------------|
A|--------------------------------------------|
F|-----------------------4--4-4-4--4-4-4--4---|
C|---2--2-2-2--2-2-2--2--4--4-4-4--4-4-4--4---|
G|---2--2-2-2--2-2-2--2--2--2-2-2--2-2-2--2---|
C|---2--2-2-2--2-2-2--2-----------------------|
     I can change        I can change

D|--------------------------------------------------|
A|--------------------------------------------------|
F|--2--2-2-2--2-2-2--2--4--4--4--4--4--4--4--4--4---|
C|--2--2-2-2--2-2-2--2--4--4--4--4--4--4--4--4--4---|
G|--0--0-0-0--0-0-0--0--2--2--2--2--2--2--2--2--2---|
C|--------------------------------------------------|
tomorrow

Bridge:
D|--------------------------------------------|
A|--------------------------------------------|
F|-----------------------4--4-4-4--4-4-4--4---|
C|---2--2-2-2--2-2-2--2--4--4-4-4--4-4-4--4---|
G|---2--2-2-2--2-2-2--2--2--2-2-2--2-2-2--2---|
C|---2--2-2-2--2-2-2--2-----------------------|
for all  the  years  of emptiness

D|--------------------------------------------|
A|--------------------------------------------|
F|--6--6-6-6--6-6-6--6--2--2-2-2--2-2-2--2----|
C|--6--6-6-6--6-6-6--6--2--2-2-2--2-2-2--2----|
G|--4--4-4-4--4-4-4--4--0--0-0-0--0-0-0--0----|
C|--------------------------------------------|
for all   of   my   mistakes

D|--------------------------------------------|
A|--------------------------------------------|
F|--6--6-6-6--6-6-6--6--4--4-4-4--4-4-4--4----|
C|--6--6-6-6--6-6-6--6--4--4-4-4--4-4-4--4----|
G|--4--4-4-4--4-4-4--4--2--2-2-2--2-2-2--2----|
C|--------------------------------------------|
for all the years I've thrown it all

D|---------------------------------------------|
A|---------------------------------------------|
F|--2--2-2-2--2-2-2--2--2--2-2-2-4-4-4--4--4---|
C|--2--2-2-2--2-2-2--2--2--2-2-2-4-4-4--4--4---|
G|--0--0-0-0--0-0-0--0--0--0-0-0-2-2-2--2--2---|
C|---------------------------------------------|
  away                     it's not too late

D|--------------------------------------------|
A|--------------------------------------------|
F|--6--6-6-6--6-6-6--6--4--4-4-4--4-4-4--4----|
C|--6--6-6-6--6-6-6--6--4--4-4-4--4-4-4--4----|
G|--4--4-4-4--4-4-4--4--2--2-2-2--2-2-2--2----|
C|--------------------------------------------|

D|---------------------------------------------|
A|---------------------------------------------|
F|--2--2-2-2--2-2-2--2--2--2-2-2-4-4-4--4--4---|
C|--2--2-2-2--2-2-2--2--2--2-2-2-4-4-4--4--4---|
G|--0--0-0-0--0-0-0--0--0--0-0-0-2-2-2--2--2---|
C|---------------------------------------------|

D|--------------------------------------------|
A|--------------------------------------------|
F|--6--6-6-6--6-6-6--6--4--4-4-4--4-4-4--4----|
C|--6--6-6-6--6-6-6--6--4--4-4-4--4-4-4--4----|
G|--4--4-4-4--4-4-4--4--2--2-2-2--2-2-2--2----|
C|--------------------------------------------|
for all the years I've thrown it all

D|-----------------------------------------------------|
A|-----------------------------------------------------|
F|----2--2-2-2--2-2-2--2-2-4--4--4--4--4--4--4--4--4---|
C|----2--2-2-2--2-2-2--2-2-4--4--4--4--4--4--4--4--4---|
G|----0--0-0-0--0-0-0--0-0-2--2--2--2--2--2--2--2--2---|
C|-----------------------------------------------------|
    away  (those days are gone forever)

Chorus 3:
D|--------------------------------------------|
A|--------------------------------------------|
F|-----------------------4--4-4-4--4-4-4--4---|
C|---2--2-2-2--2-2-2--2--4--4-4-4--4-4-4--4---|
G|---2--2-2-2--2-2-2--2--2--2-2-2--2-2-2--2---|
C|---2--2-2-2--2-2-2--2-----------------------|
     I can change        I can change

D|--------------------------------------------|
A|--------------------------------------------|
F|--6--6-6-6--6-6-6--6--2--2-2-2--2-2-2--2----|
C|--6--6-6-6--6-6-6--6--2--2-2-2--2-2-2--2----|
G|--4--4-4-4--4-4-4--4--0--0-0-0--0-0-0--0----|
C|--------------------------------------------|
tomorrow          (for all of my mistakes)

D|--------------------------------------------|
A|--------------------------------------------|
F|-----------------------4--4-4-4--4-4-4--4---|
C|---2--2-2-2--2-2-2--2--4--4-4-4--4-4-4--4---|
G|---2--2-2-2--2-2-2--2--2--2-2-2--2-2-2--2---|
C|---2--2-2-2--2-2-2--2-----------------------|
     I can change        I can change

D|---------------------------------------------|
A|---------------------------------------------|
F|--2--2-2-2--2-2-2--2--2--2-2-2-4-4-4--4--4---|
C|--2--2-2-2--2-2-2--2--2--2-2-2-4-4-4--4--4---|
G|--0--0-0-0--0-0-0--0--0--0-0-0-2-2-2--2--2---|
C|---------------------------------------------|
    I can change              before it's too late

Outro: (listen for timing and repeat a few times)
D|--------------------------------------------------------------------------|
A|-10h12-p10h12-p10---10h12-p10h12-p10---9p7-9p7-9p7-9p7---7p5-7p5-7p5-7p5--|
F|--------------------------------------------------------------------------|
C|--------------------------------------------------------------------------|
G|--------------------------------------------------------------------------|
C|--------------------------------------------------------------------------|

Guitar 2 - Rhythm Guitar
Tuning: Drop C (C G C F A D)

Intro: Bm A G D A

Fm             Bm
For the first time in years
 G
There's a light up ahead
D
It's calling
(It's pulling me closer)
Bm
Reborn within
G
Now I'm shedding my skin
D
It's falling
(The weight off my shoulders)


G
Cause I can't stay
A
Chained to my secrets
Bm
No I can't stay
A
I'm bound by my regrets
   G
I can't erase
Em
All of my errors
G               A
Those days are gone forever


D               A
I can change, I can
            Bm
Change tomorrow
D               A
I can change, I can
            G
Change tomorrow

Fm                Bm
On my knees in the rain
       G
With my head hung in shame
             D
Just crawling, stalling
(All alone in my ways)
       Bm
Memories I can't erase
  G
Faces I couldn't face
    D
Haunt me
(My life lay to waste)


G
Cause I can't stay
A
Chained to my secrets
Bm
No I can't stay
A
I'm bound by my regrets
G
I need a break
Em
It's now or never
G             A
Yesterday's gone forever

D              A
I can change, I can
          Bm
Change tomorrow
D               A
I can change, I can
           G
Change tomorrow

     D                A
For all the years of emptiness
Bm               G
For all of my mistakes
            Bm
For all the years I've
D           A     Em
Thrown it all away
G      A             Bm
     It's not too late

             Bm                   A      G
For all the years I've thrown it all away
(Those days are gone forever)


A  D

G              A
I can change, I can
          Bm
Change tomorrow
(For all of my mistakes)
D
I can change,
A
I can change,
Em
I can change
A               Bm
Before it's too late
A            Bm
It's not too late


... Enjoy Lad's ... :D ...
Tap to rate this tab
# A B C D E F G H I J K L M N O P Q R S T U V W X Y Z