Song name
# A B C D E F G H I J K L M N O P Q R S T U V W X Y Z

Like A Storm - Never Surrender tab

Artist: Like A Storm
Track: 02 Never Surrender
Album: Chaos Theory Part I
Artist Website: http://www.likeastorm.com

Tabbed by Kurt Schenck

My first tab so go easy on me! 
Im 99% sure this is all correct. All learned by ear. 

* - palm mute
\ - slide down
/ - slide up
\xxxxx\- pick scrape
tp - tremolo pick 

Tuning: Drop C (C-G-C-F-A-D)

Intro
D|---------------------------------------------------------------------------------------|
A|---------------------------------------------------------------------------------------|
F|---------------------------------------------------------------------------------------|
C|--0-0-0--0--0-0-0--0--0--0--0-0-0-0--0--0-0-0--0--0--0--0--0--0-0-0--0--0-0-0--0--0--0-|
G|--0-0-0--0--0-0-0--0--0--0--0-0-0-0--0--0-0-0--0--0--0--0--0--0-0-0--0--0-0-0--0--0--0-|
C|--0-0-0--0--0-0-0--0--0--0--0-0-0-0--0--0-0-0--0--0--0--0--0--0-0-0--0--0-0-0--0--0--0-|
    * * *     * * *     *     * * * *     * * *     *     *     * * *     * * *     *

D|-------------------|
A|-------------------|
F|-------------------|
C|--3----5----3----1-|
G|--1----3----1----1-|
C|-----------------1-|




Intro Riff
D|--------------------------------------------------------------------------------------------------|
A|--------------------------------------------------------------------------------------------------|
F|--------------------------------------------------------------------------------------------------|
C|--------------------------------------------------------------------------------------------------|
G|--------------------------------------------------------------------------------------------------|
C|--0--0--13-12-10--0--0--13-12-10--0--0--13-12-10--0--0--10v--0--0--13-12-10--0--0--13-12-10-------|

D|-------------------|
A|-------------------|
F|-------------------|
C|--3----5----3----1-|
G|--1----3----1----1-|
C|-----------------1-|




Verse
D|----------------------------------------------------------------------------------------------------|
A|----------------------------------------------------------------------------------------------------|
F|----------------------------------------------------------------------------------------------------|
C|--0-0-0--0--0-0-0--0--0--0--0-0-0-0--0--0-0-0--0--0--0--0--0--0-0-0--0--0-0-0--0--0--0---3--5--3--1-|
G|--0-0-0--0--0-0-0--0--0--0--0-0-0-0--0--0-0-0--0--0--0--0--0--0-0-0--0--0-0-0--0--0--0---1--3--1--1-|
C|--0-0-0--0--0-0-0--0--0--0--0-0-0-0--0--0-0-0--0--0--0--0--0--0-0-0--0--0-0-0--0--0--0------------1-|
    * * *     * * *     *     * * * *     * * *     *     *     * * *     * * *     *
You put a wall in my way and I'll break it. You got something to say I can take it
Did you think that a few little words would take (me!) break (me!), I don't care! 




Pre Chours
D|-----------------------------------------------------------------------------------|
A|-----------------------------------------------------------------------------------|
F|-----------------------------------------------------------------------------------|
C|-------3--3--3--3--5--5--5--5--0--0--0--0--0--0--0--5-5--3--3--3--3--5-5-5-5-------|
G|-------1--1--1--1--3--3--3--3--0--0--0--0--0--0--0--3-3--1--1--1--1--3-3-3-3-------|
C|--/12\-------------------------0--0--0--0--0--0--0----------------------------/12\-|

Ohh, I still believe, that there is something here for me
Ohh, as long as i breathe!




Chorus
D|-------|------------|-------|-----|-------------|
A|-------|------------|-------|-----|-------------|
F|-------|------------|-------|-----|-------------|
C|--0~---|--3~----/5--|--3~---|-5~--|--3--5--3--1-|
G|--0~---|--1~----/3--|--3~---|-3~--|--1--3--1--1-|
C|--0~---|------------|--3~---|-----|-----------1-|
No! I will never surrender 
No! I will fight forever
No! There is no turning back from here. I will never surrender!                                   




Intro Riff
Guitar 1
D|--------------------------------------------------------------------------------------------------|
A|--------------------------------------------------------------------------------------------------|
F|--------------------------------------------------------------------------------------------------|
C|--------------------------------------------------------------------------------------------------|
G|--------------------------------------------------------------------------------------------------|
C|--0--0--13-12-10--0--0--13-12-10--0--0--13-12-10--0--0--10v--0--0--13-12-10--0--0--13-12-10-------|

D|-------------------|
A|-------------------|
F|-------------------|
C|--3----5----3----1-|
G|--1----3----1----1-|
C|-----------------1-|

Guitar 2 fill during riff (90% sure this is correct. If not, improvise) 

D|--15b17----15b17--15b17r15-----------------------------------------------------|
A|----------------------------13--15--13----13p12p10-----------------------------|
F|---------------------------------------------------12p10-----------------------|
C|---------------------------------------------------------12--10h12p10----10/12-|
G|----------------------------------------------------------------------12-------|
C|-------------------------------------------------------------------------------|




Verse
Guitar 1
D|----------------------------------------------------------------------------------------------------|
A|----------------------------------------------------------------------------------------------------|
F|----------------------------------------------------------------------------------------------------|
C|--0-0-0--0--0-0-0--0--0--0--0-0-0-0--0--0-0-0--0--0--0--0--0--0-0-0--0--0-0-0--0--0--0---3--5--3--1-|
G|--0-0-0--0--0-0-0--0--0--0--0-0-0-0--0--0-0-0--0--0--0--0--0--0-0-0--0--0-0-0--0--0--0---1--3--1--1-|
C|--0-0-0--0--0-0-0--0--0--0--0-0-0-0--0--0-0-0--0--0--0--0--0--0-0-0--0--0-0-0--0--0--0------------1-|
    * * *     * * *     *     * * * *     * * *     *     *     * * *     * * *     *
I've given way to much to just give up now. 
Stood up too many times to just (FALL BACK DOWN!)
And all the shit that I'm facing now in the end I can say, I made it through hell!


Guitar 2 Verse Fill
D|--------17-22p17----|------------------------|
A|-----18----------18-|------------------------|
F|--19----------------|--19<--end on this note-|
C|--------------------|------------------------|
G|--------------------|------------------------|
C|--------------------|------------------------|
  ^^^^^^^^^^^^^^^^^^^^
	Repeat 8X        




Pre Chorus
D|-----------------------------------------------------------------------------------|
A|-----------------------------------------------------------------------------------|
F|-----------------------------------------------------------------------------------|
C|-------3--3--3--3--5--5--5--5--0--0--0--0--0--0--0--5-5--3--3--3--3--5-5-5-5-------|
G|-------1--1--1--1--3--3--3--3--0--0--0--0--0--0--0--3-3--1--1--1--1--3-3-3-3-------|
C|--/12\-------------------------0--0--0--0--0--0--0----------------------------/12\-|
Ohh, I still belive, that there is something here for me
Ohh, as long as I breathe




Chorus
D|-------|------------|-------|-----|-------------|
A|-------|------------|-------|-----|-------------|
F|-------|------------|-------|-----|-------------|
C|--0~---|--3~----/5--|--3~---|-5~--|--3--5--3--1-|
G|--0~---|--1~----/3--|--3~---|-3~--|--1--3--1--1-|
C|--0~---|------------|--3~---|-----|-----------1-|
No! I will never surrender
No! I will fight forever
No! There is no turning back from here. I will never surrender!




Solo
Guitar 1
D|--------------------------------------------------------------|
A|--------------------------------------------------------------|
F|--------------------------------------------------------------|
C|--5-5-5--5--5-5-5--5--5--5--5-5-5-5-5--5--5-5-5--5--5--5--5-5-|
G|--5-5-5--5--5-5-5--5--5--5--5-5-5-5-5--5--5-5-5--5--5--5--5-5-|
C|--5-5-5--5--5-5-5--5--5--5--5-5-5-5-5--5--5-5-5--5--5--5--5-5-|
    * * *     * * *     *     * * * * *     * * *     *     * *

D|--------------------------------------------------------------------------------------------|
A|--------------------------------------------------------------------------------------------|
F|--------------------------------------------------------------------------------------------|
C|--------------------------------------------------------------------------------------------|
G|--------------------------------------------------------------------------------------------|
C|--0--0--13-12-10--0--0--13-12-10--0--0--13-12-10--0--0--10v--0--0--13-12-10--0--0--13-12-10-|

D|-------------|
A|-------------|
F|-------------|
C|-8--7--10--5-|
G|-8--7--10--5-|
C|-8--7--10--5-|

D|-------------------------------|
A|-------------------------------|
F|-------------------------------|
C|-------------------------------| LISTEN FOR TIMING
G|-------------------------------|
C|--0-12-0-12-0-12-0-13-0-13-0-10|
    *    *    *    *    *    *      

Guitar 2                                                                 
D|------------------------------------------------------------15---------17\---------------|
A|---------------10------10----10----10----------------------------------------------------|
F|---------------12b14~--12b14-12b14-12b14~--12p10-----------------------------5b6r5-------|
C|-------------------------------------------------12--10h12------10h12--------------------|
G|----\xxxxxxxx\---------------------------------------------------------------------------|
C|----\xxxxxxxx\---------------------------------------------------------------------------|

D|--15p13p10-15p13p10-15p13p10-15p13p10-------------------------------------|
A|--------------------------------------15p13p10-15p13p10-15p13p10-15p13p10-|
F|--------------------------------------------------------------------------|
C|--------------------------------------------------------------------------| X2 With Wah 
G|--------------------------------------------------------------------------|
C|--------------------------------------------------------------------------|

D|---------------------------------------17--22p17----------17-22p17--------|
A|--15tp--17tp--18tp--20-20-20--------18-----------18----18----------18-----|
F|---------------------------------19-----------------19----------------19~-|
C|--------------------------------------------------------------------------|
G|--------------------------------------------------------------------------|
C|--------------------------------------------------------------------------|




Pre Chorus
D|---------------------------------|------------|
A|---------------------------------|------I-----|
F|---------------------------------|-----WILL---|
C|-------3--3--3--3--5--5--5--5----|------BE----|
G|-------1--1--1--1--3--3--3--3----|-----FREE!--|
C|---------------------------------|------------|
Oh, as long as i breathe




Final Chorus
D|-------|------------|-------|-----|-------------|
A|-------|------------|-------|-----|-------------|
F|-------|------------|-------|-----|-------------|
C|--0~---|--3~----/5--|--3~---|-5~--|--3--5--3--1-|X2
G|--0~---|--1~----/3--|--3~---|-3~--|--1--3--1--1-|
C|--0~---|------------|--3~---|-----|-----------1-|
No! I will never surrender
No! I will fight forever 
No! There is no turning back from here. I will never surrender
No! There is no surrender
No! You will never bring me down. 
I will stand in the face of fear. I will never surrender! 




Outro
D|--------------------------------------------------------------------------------------------|
A|--------------------------------------------------------------------------------------------|
F|--------------------------------------------------------------------------------------------|
C|--------------------------------------------------------------------------------------------|
G|--------------------------------------------------------------------------------------------|
C|--0--0--13-12-10--0--0--13-12-10--0--0--13-12-10--0--0--10v--0--0--13-12-10--0--0--13-12-10-|

D|--------------|
A|--------------|
F|--------------|
C|--8--7--10--5-|
G|--8--7--10--5-|
C|--8--7--10--5-|
                                                                                                     
D|-----------------------------------------------------------|
A|-----------------------------------------------------------|
F|-----------------------------------------------------------|
C|-----------------------------------------------------------|
G|-----------------------------------------------------------|
C|-0-12-0-12-0-12-0-13-0-13-0-10---0-12-0-12-0-12-0-13-0-12v-|
   *    *    *    *    *    *      *    *    *    *    * 

											  
D|----------------------------------------------|---------------------------------------------|
A|----------------------------------------------|---------------------------------------------|
F|----------------------------------------------|---------------------------------------------|
C|-----------------------------------3--5--3--1-|---------------------------------------------|
G|-----------------------------------1--3--1--1-|---------------------------------------------|
C|--0--0--13-12-10--0--0--13-12-10------------1-|--0~--/12--12~---0~--/12--12~---0~--/12--12~-|

Guitar 1
D|--0~~~--|
A|--3~~~--|
F|--2~~~--|
C|--0~~~--| LET RING
G|--0~~~--|
C|--0~~~--|

Guitar 2 
D|----------------|
A|----------------|
F|----------------|
C|--14b15r14--12~-|
G|----------------|
C|----------------|
Tap to rate this tab
# A B C D E F G H I J K L M N O P Q R S T U V W X Y Z