Song name
# A B C D E F G H I J K L M N O P Q R S T U V W X Y Z

Likely Lads - Off The Rails tab

-------------------------------------------------------------------------------
                             OFF THE RAILS - LIKELY LADS
-------------------------------------------------------------------------------
Tabbed by: Matt

Band Website: http://nottoofussed.com/

I have tabbed the LIKELY LADS' OFF THE RAILS for you.  It's a very easy to play
song and it's pretty catchy.  It's just one riff repeated over and over with 
very basic chords beneath that.

Tuning: Standard (eBGDAE)

Riff (repeated throughout song):

e|5-4-5-7-5-4-5-4|
B|5-5-5-5-5-5-5-5|
G|---------------|
D|---------------|
A|---------------|
E|---------------|

Chords (verse and chorus) (not too sure on names, I'm not great at theory):
  E     C#    B     Am    
e|0-----4-----7-----5|
B|0-----4-----7-----5|
G|1-----6-----8-----5|
D|2-----6-----9-----7|
A|2-----4-----9-----7|
E|0-----------7-----5|

Sometimes the chords are arpeggiated, just listen to the song to figure out
the rhythm and when to strum and arpeggiate etc.  

That's all there is to it!  Happy playing!
Tap to rate this tab
 
# A B C D E F G H I J K L M N O P Q R S T U V W X Y Z