Song name
# A B C D E F G H I J K L M N O P Q R S T U V W X Y Z

Lil Chris - Me And My Life tab

-------------------------------------------------------------------------------
			     Me And My Life - Lil Chris
-------------------------------------------------------------------------------
Tabbed by:Generation101
Email:chris.v.corbett@btinternet.com

Tuning:E-A-D-G-B-E
INTRO
e|-----------------|
B|-----------------|
G|----------9-9----|   X4
D|----7-7---9-9----|
A|----7-7---7-7----|
E|----5-5----------|

e|---------|
B|---------|
G|----99---|X16 NEAR TO THE END BUILD UP TO A E POWER CHORD
D|----99---|
A|--7777---|
E|---------|
CHORUS
e|----------------------------------|
B|----------------------------------|
G|--13----14-13-11--9--6---6--13----|  X2
D|----------------------------------|
A|--11----12-11--9--7--4---4--11----|
E|----------------------------------|

NO GUITAR FOR THE VERSE

CHORUS
e|---------------------------------|
B|---------------------------------|
G|--13----14-13-11--9--6-----13----|  X2
D|---------------------------------|
A|--11----12-11--9--7--4-----11----|
E|---------------------------------|

e|-----------------------------|
B|--13--12--11-10--------------|
G|------------------X3----9----|
D|------------------------9----|
A|--11--10--9--8----------7----|
E|-----------------------------|

THATS REALLY ALL YOU NEED TO KNOW BUT IF YOU WANT ANYTHING ELES ON THIS SONG OR ANY 
BY LIL CHRIS SEND MY AN EMAIL
Tap to rate this tab
 
# A B C D E F G H I J K L M N O P Q R S T U V W X Y Z