Guitaretab - guitar tabs
Song name
# A B C D E F G H I J K L M N O P Q R S T U V W X Y Z

Lil Chris - Get Delirious tab

E-------------------------------------
B-------------------------------------
G-------------------------------------
D---9-9----9--------------------------
A-7------7---------------------------- X 3 or whatever
E-------------------------------------

then

E-------------------------------------
B-------------------------------------
G-------------------------------------
D---9-9----9-9------------------------
A-7------7---------------------------- X 3 or whatever
E-------------------------------------

Just mix the two lead parts into each other after the intro section.

The Chords after that bit
[ Tab from: http://www.guitaretab.com/l/lil-chris/84919.html ]
E-------------------------------------
B-------------------------------------
G-------------------------------------
D-9--9--9--8--7-----------------------
A-9--9--9--8--7----------------------- X 3
E-7--7--7--6--5-----------------------

Then

E-------------------------------------
B-------------------------------------
G-------------------------------------
D-12--12--14--14----------------------
A-12--12--14--14---------------------- X 3
E-10--10--12--12----------------------

e|-----------------------------|
B|-----------------------------|
G|-----------7-7--9-9--7-7-----|
D|------9-9-----------------9--|
A|-7-7-------------------------|
E|-----------------------------|

e|------------------------------------------|
B|------------------------------------------|
G|------------------------------------------|
D|-9-9-9--8--7--9-9-9-9--8--7--9-9-9--8-----|
A|-9-9-9--8--7--9-9-9-9--8--7--9-9-9--8-----|
E|-7-7-7--6--5--7-7-7-7--6--5--7-7-7--6-----|

e|------------|
B|------------|
G|-7-7--7-9-9-|
D|-7-7--7-9-9-|
A|-5-5--5-7-7-|
E|------------|
Related for Get Delirious tab