Song name
# A B C D E F G H I J K L M N O P Q R S T U V W X Y Z

Lil Eddie - Statue tab

I've been searching for the tabs of these song .
and since there is no tabs, well i look for
piano sheets.
thanks for those pianist !
BTW : this is my facebook: http://www.facebook.com/heyim.daniel1

these is intro only!
i will follow up the whole tab at the following day ;D

"~ = let it ring"
CAPO 6th fret.


e|--3--2--3----------------|--3--2--3---------------|
B|---------------------3~--|--------------------3~--|
G|-----------------0~------|----------------0~------|
D|-------------0~----------|------------2~----------|
A|-------------------------|--------2~--------------|
E|--------3~---------------|------------------------|


e|--3--2--3----------------|------------------------|
B|---------------------3~--|--0------------10~------|
G|-----------------0~------|-----------7------------|
D|-------------2~----------|-------7----------------|
A|--------3~---------------|--5~--------------------|
E|-------------------------|------------------------|


e|--3--2--3----------------|--3--2--3---------------|
B|---------------------3~--|--------------------3~--|
G|-----------------0~------|----------------0~------|
D|-------------0~----------|------------2~----------|
A|-------------------------|--------2~--------------|
E|--------3~---------------|------------------------|


e|--3--2-------------------|------------------------|
B|--------3------------3--3|--0------------10~------|
G|-----------------0~------|-----------7------------|
D|-------------2~----------|-------7----------------|
A|--------3~---------------|--5~--------------------|
E|-------------------------|------------------------|
Tap to rate this tab
# A B C D E F G H I J K L M N O P Q R S T U V W X Y Z