Song name
# A B C D E F G H I J K L M N O P Q R S T U V W X Y Z

Lil Wayne - Tie My Hands tab

----------------------------------------------------------------------------
			  Tie My Hands - Lil Wayne(Weezy)
----------------------------------------------------------------------------
Tabbed by:MMBEAST
Email: NUNYA

Tuning:Standard
There are two ways to play this:
1) Similar to the song
2) Chords and Improv

Option 1: Pretty Much Is The Whole Song (Except Bass & Drums are added)

e|--------3-----/5-------------------------------------------------------|
B|-----------------------7--------7p5---------5------/7------3-----------|
G|-------------------------------------7------3--------------2-----------|
D|--------2-----------------------------------4--------------------------|
A|-----------------------5-----------------------------------2-----------|
E|---0-------------------------------------------------------------------|

Option 2: Variation
e|------------------------------------------2------------------------------|
B|--7h8---10------7---7---7---7-----5---5---5-----3--3--3--3--3------------|
G|--7-----7-------7---7---7---7-----3---3---3-----2--2--2--2--2------------|
D|--7h9---9-------7---7---7---7-----4---4---4-----0--0--0--0--0------------|
A|--7-----7-------5---5---5---5-----0---0---0-----2--2--2--2--2------------|
E|------------------------------------------------0--0--0--0--0------------|

Option 3: More Variation

e|-------------------------------------------------------------------|
B|-------8------/10----7------7p5p3-----5------/7-------3------------|
G|-------7-------------7----------------3---------------2------------|
D|--------------------------------------4----------------------------|
A|-------7-------------5--------------------------------2------------|
E|----0--------------------------------------------------------------|



| /  slide up
| \  slide down
| h  hammer-on
| p  pull-off
| ~  vibrato
| +  harmonic
| x  Mute note
============================================================================
Tap to rate this tab
# A B C D E F G H I J K L M N O P Q R S T U V W X Y Z