Song name
# A B C D E F G H I J K L M N O P Q R S T U V W X Y Z

Lil Wayne - Shoot Me Down tab

-------------------------------------------------------------------------------
			     Shoot Me Down - Lil Wayne (feat. D Smith)
-------------------------------------------------------------------------------
Tabbed by: |Special K|
Email:kgaff12@yahoo.com

Tuning: Standard

Lead
e|-------------------------------------------------------------|
B|-------------------------------------------------------------|
G|-------------------------------------------------------------|  
D|-------------------------------------------------------------|
A|----------4-7-6-4---7-6-4---4--------4-----------------------|
E|--4---4-7---------------------7----7---2-4-------------------|

Rhythm
e|----------------------------------------------------------------------|
B|----------------------------------------------------------------------|
G|--------------6-------------6/8---------------------------------------|
D|--6-----2-----6-x8--9-------6/8--4/6----------------------------------|
A|--6-x8--2-x8--4-----9-x4----4/6--4/6----------------------------------|
E|--4-----0-----------7------------2/4----------------------------------|
                                             


| /  slide up
| \  slide down
| h  hammer-on
| p  pull-off
| ~  vibrato
| +  harmonic
| x  Mute note
===============================================================================
Tap to rate this tab
# A B C D E F G H I J K L M N O P Q R S T U V W X Y Z