Song name
# A B C D E F G H I J K L M N O P Q R S T U V W X Y Z

Lil Wayne - Hot Revolver tab

Sup sup. i'm josh. and here is another tab called "Hot Revolver" by Lil Wayne. if you 
any questions hit me up on aim: mi3nboijosh or email. josh_saechao@yahoo.com

hope u like it

Intro: (Bass part)
e------------------------------------------------------|
B------------------------------------------------------|
G------------------------------------------------------|
D------------------------------------------------------|          X2
A-------------------------------2-2-2-2-2-2-2-2-2-2----|
E-11-11-11-11-11-11-11-11-11-11------------------------|

e-------------------------------------------------------------------|
B-------------------------------------------------------------------|
G-------------------------------------------------------------------|
D-------------------------------------------------------------------|
A-------------------------------------------------------------------|
E-3-3-3-3-3-3-3-7-7-7-7-7-7-7-3-3-3-3-3-3-3-7-7-7-7-7-5-5-5-5-5-5-5-|

Later on the guitar comes in:

e---------------------------------------------------|
B---------------------------------------------------|
G---------------------------------------------------|
D-12-12-12-12-12-12-12-12-12-12-4-4-4-4-4-4-4-4-4-4-|
A-12-12-12-12-12-12-12-12-12-12-4-4-4-4-4-4-4-4-4-4-|
E-11-11-11-11-11-11-11-11-11-11-2-2-2-2-2-2-2-2-2-2-|

e-------------------------------------------------------------------|
B-------------------------------------------------------------------|
G-------------------------------------------------------------------|
D-5-5-5-5-5-5-5-9-9-9-9-9-9-9-5-5-5-5-5-5-5-9-9-9-9-9-7-7-7-7-7-7-7-|
A-5-5-5-5-5-5-5-9-9-9-9-9-9-9-5-5-5-5-5-5-5-9-9-9-9-9-7-7-7-7-7-7-7-|
E-3-3-3-3-3-3-3-7-7-7-7-7-7-7-3-3-3-3-3-3-3-7-7-7-7-7-5-5-5-5-5-5-5-|

Just play that the whole song i guess. i'm tryna get those extra pickings too. so if u 
any questions just holla at me
Tap to rate this tab
# A B C D E F G H I J K L M N O P Q R S T U V W X Y Z