Song name
# A B C D E F G H I J K L M N O P Q R S T U V W X Y Z

Lil Wayne - Lollipop Acoustic tab

Help us improve GuitareTab! Take a short survey!
This is a version of lollipop with the lyrics. The rap was to hard to figure out so here you go.

Tunning-standard



e|---------------3333----------------5555|
B|3333-5555-6666------3333-5555-6666-----|
G|---------------------------------------| repeat like 4 times? i dont know
D|---------------------------------------|
A|---------------------------------------|
E|---------------------------------------|

______________________________________________

e|--3--5---3---1------------------3---5----3---1-----------------|
B|-----------------3--3---3--3--------------------1-1--1--1------|
G|---------------------------------------------------------------| 
D|---------------------------------------------------------------|
A|---------------------------------------------------------------|
E|---------------------------------------------------------------|
______________________________________________

e|-3---5---3---1--------3--5--3--1--------3--5---3--1------------|
B|----------------3--3--------------3--3---------------3---------|
G|---------------------------------------------------------------|
D|---------------------------------------------------------------| 
A|---------------------------------------------------------------
E|---------------------------------------------------------------|

______________________________________________

e|-5--8--5--3---5--5--5--x1---5---8--5---3------------------------|
B|------------------------------------------3--3--(repeat 2 more times|
G|----------------------------------------------------------------|
D|----------------------------------------------------------------| 
A|----------------------------------------------------------------|
E|----------------------------------------------------------------|


If you have any problems email me Barcelonaboy109@aim.com
Related for Lollipop Acoustic tab