Song name
# A B C D E F G H I J K L M N O P Q R S T U V W X Y Z

Lil Wayne - I Know You Want Me tab

Well i got extremely bored and was listening to this song so i tabbed it out. Why not?

        The whole song is basically this with one other detail.
e|------------------------------------------------------------------------|
B|---------------15-----------15-----------------15----------------15-----|
G|----------14------------14--------------14----------------14------------|
D|-----12-------------12--------------12---------------12-----------------|
A|------------------------------------------------------------------------|
E|------------------------------------------------------------------------|

           And the little horn thing goes like this
e|-----------------------------------------------------------------------|
B|-----------------------------------------------------------------------|
G|---14--12---10------14---12--10-------14--12--10-------14---12---10----|
D|----------------12----------------12---------------12------------------|
A|-----------------------------------------------------------------------|
E|-----------------------------------------------------------------------|

Repeat First


Also, the song is in Dmin so you can just throw the D pent. on it if you just wanna 
over it.
Tap to rate this tab
# A B C D E F G H I J K L M N O P Q R S T U V W X Y Z