Song name
# A B C D E F G H I J K L M N O P Q R S T U V W X Y Z

Lil Wayne - Bedrock tab

E|---------------------------------------------------------------|
B|---------------------------15-11-15-11-15-11-15-11-15----------|
G|13-15-13-15-13-15-13-------------------------------------------|
D|---------------------------------------------------------------|
A|---------------------------------------------------------------|
E|---------------------------------------------------------------|

E|15-11-15-11--13-10-13-10---------------15----------------------|
B|--------------------------16-13-16-13-----16-13-16-------------|
G|---------------------------------------------------------------|
D|---------------------------------------------------------------|
A|---------------------------------------------------------------|
E|---------------------------------------------------------------|

My First Tab No Account though lol i will probably make one for now call me ummmm 
Air sound cool xD
Tap to rate this tab
 
# A B C D E F G H I J K L M N O P Q R S T U V W X Y Z