Song name
# A B C D E F G H I J K L M N O P Q R S T U V W X Y Z

Lil Wayne - Bedrock tab

Standard Tuning:

E ----------------------10----10----10----10--------|
B --9-11-9-11-9-11-9-11----11----11----11----11-----|
G --------------------------------------------------|
D --------------------------------------------------|
A --------------------------------------------------|
E --------------------------------------------------|


E --15----15----13----13----11----11----15-11----11-|
B -----16----16----15----15----13----13-------13----|
G --------------------------------------------------|
D --------------------------------------------------|
A --------------------------------------------------|
E --------------------------------------------------|
Tap to rate this tab
 
# A B C D E F G H I J K L M N O P Q R S T U V W X Y Z