Song name
# A B C D E F G H I J K L M N O P Q R S T U V W X Y Z

Lil Wayne - Bedrock tab

the names michelle. :]
i got tired of all the tabs for this song so i decided to make my own
its my first tab so be gentle! lol
im lik 99.99% sure this is perfect.
if anything heres my aim
mishaxilyx


for all verses
e--------------------------------------------------|
b--------------------------------------------------|
g---3-3-3-3---7-7-7-7---12-12--10-10----8--8--8--8-|
d--6-6-6-6---8-8-8-8---13-13--12-12---10-10-10-10--|
a--------------------------------------------------|
e--------------------------------------------------|

chorus:
e---------------------------------------------|
b---------------------------------------------|
g---------------------------------------------|
d--6---------8-------13------13-------10------|
a--6---------8-------13------13-------10------|
e--4---------6-------11------10-------8-------|
 4counts  4counts  2counts 2counts  4counts
Tap to rate this tab
 
# A B C D E F G H I J K L M N O P Q R S T U V W X Y Z