Song name
# A B C D E F G H I J K L M N O P Q R S T U V W X Y Z

Lil Wayne - Shoot Me Down tab

-------------------------------------------------------------------------------
           Shoot Me Down by Lil Wayne on his album: Tha Carta' III
-------------------------------------------------------------------------------
Tabbed by:replaceits
Email:sidw@ymail.com

standard tuning

im pretty sure that this is a bass but it sounds fine on a guitar;)

e|-------------------------------------------|
B|-------------------------------------------|
G|-------------------------------------------|  
D|------------2-1-----2-1----------4/6-------|
A|--------2-4------4-------4--4-2--2/4-4/6---|
E|--4---4------------------------------2/4---|
only play the first note the first time
just repeat that over and over couldnt figure out the solo sorry:(

at the end of the song it has power chords being strumed (look below)
e|-------------------------------------------------------------------------|
B|-------------------------------------------------------------------------|
G|------------------------------------6-~-6-6-6-6-6-6-----------4/6--------|
D|--6-6-6-6-6-6-6-6--2-~-2-2-2-2-2-2--6-~-6-6-6-6-6-6--9-~-9-9--4/6--4/6-~-|
A|--6-6-6-6-6-6-6-6--2-~-2-2-2-2-2-2--4-~-4-4-4-4-4-4--9-~-9-9--2/4--4/6-~-|
E|--4-4-4-4-4-4-4-4--0-~-0-0-0-0-0-0-------------------7-~-7-7-------2/4-~-|
play that 2 times and fade out

~=let ring
Tap to rate this tab
# A B C D E F G H I J K L M N O P Q R S T U V W X Y Z