Song name
# A B C D E F G H I J K L M N O P Q R S T U V W X Y Z

Lil Wayne - Paradise tab

Artist: Lil Wayne
Title: Paradice
Tabbed by: Pasha Comix


Mulah, babe

(Verse 1)

Something like this!)

E-----------------------------------------------------------|
B-------3-------------6-------------------------------------|
G------------------------------------8------------8-------7-|
D-----5-------------8-------------10----------8-8-----7-7---|
A---5--------5----8--------8---10--------10-6-------5-------|
E-3--------3----6--------6---8---------8--------------------|
2nd time
E-----------------------------------------------------------|
B-------3-------------6--6----------------------------------|
G------------------------------------8------------8-------7-|
D-----5-------------8-------------10----------8-8-----7-7---|
A---5--------5----8------------10--------10-6-------5-------|
E-3--------3----6---------6--8---------8--------------------|


Gm         A#               Cm               D# D
She was a young girl in pursuit of glory and fame
She would do anything she could to feel the flame
When everybody knew your moves and the games you played
She finally made all her dreams come true and then she screamed

(Chorus)
A#    F            Gm
   Oh, no, this ain't paradise
    D#  D         A#
Oh, no this ain't paradise
    F              Gm
Oh, no, this ain't paradise
D# D
Yeah
Gm   A#              Cm
 Oh, no, this ain't paradise
    D#  D          Gm
Oh, no, this ain't paradise
     A#             Cm      D# D
 Oh, no, this ain't paradise

(Verse 2)
He was a young boy in pursuit of money and fame
He would do anything he could to kill the pain
When everybody knew your move, they speakin' your name
All over the late night local news I heard him scream

(Chorus)

(Bridge)
D#          Gm               F    D
 I say the sun don't shine forever
And everything that glitter ain't gold
I say love don't love forever
Oh, but everything that do gets old


Piano

E-18-17-15-----------------------------------------------|
B-----------18-16-15-------------------------------------|
G--------------------17-15-14----------------------------|
D-----------------------------17-15-13-------------------|
A--------------------------------------17-15-13-12---10--|
E--------------------------------------------------------|


Sometimes we try to find a road to the riches, need roadside assistance
Blisters on my knees from beggin' for forgiveness
Ain't no dollars on my trees, but mileage on my feet
Cause I've been climbin' to the peak and runnin' from the bullshit
I'm tired of playin' the same song, who told the DJ bring it back
Dead presidents bullet in Abraham Lincoln hat
Starin' at big posts, I sware that he be wankin' back
Cut school, sell crack, sorry I'm just thinkin' back

(The same chords as chorus)

Call me crazy I've been called worse
It's like I have it all but what's it all worth
I'm probably better in my afterlife
I should cherish life but this ain't paradise

(Chorus)

A#    F            Gm
   Oh, no, this ain't paradise
    D#  D         A#
Oh, no this ain't paradise
    F              Gm
Oh, no, this ain't paradise
D# D
Yeah
Gm   A#              Cm
 Oh, no, this ain't paradise
    D#  D          Gm
Oh, no, this ain't paradise
     A#             Cm      D# D
 Oh, no, this ain't paradise


Enjoy!!!!
Tap to rate this tab
# A B C D E F G H I J K L M N O P Q R S T U V W X Y Z