Song name
# A B C D E F G H I J K L M N O P Q R S T U V W X Y Z

Lil Wayne - Shes On Fire tab

iv been looking for a tab to this song and couldnt find one so i tabbed it myself so im 
sure it correct. this is lil waynes rip off of she's on fire. Its in standard tuning so 
vote and comment if theres anything wrong with it

Intro
e|----------------------------------|
B|----------------------------------|
G|----------------------------------|
D|----------------------------------|
A|-4---7---9----------5-------------|
E|-2---5---7----------3-------------|

e|-------------------------------------|
B|-------------------------------------|
G|-------------------------------------|
D|-------------------------------------|
A|-4---7---9----------5-------x--x--/--|
E|-2---5---7----------3-------x--x--/--|

IF you want a lead riff to replace the keyboards:
e|-----------------------------------|
B|-----------------------------------|
G|-----------------------------------|
D|-9-7-9----9-7-9--7---7---5--5------|
A|-----------------------------------|
E|-----------------------------------|


=======================================================================

most of the song is pretty the last part of the intro:


e|-------------------------------------|
B|-------------------------------------|
G|-------------------------------------|
D|-9-7-9----9-7-9--7---7---5--5--------|
A|-------------------------------------|
E|-------------------------------------|


it also has another part that plays during parts of the song you can play or someone else can.


e|-------------------------------------------------|
B|---------------------------15-17-18-17-15--------|
G|--14-15-14-15-14-15--14-15----------------14-15--|
D|-------------------------------------------------|
A|-------------------------------------------------|
E|-------------------------------------------------|


THATS PRETTY MUCH THE WHOLE SONG SO THERE YA GO HOPE THAT HELPS VOTE AND COMMENT, IF YOU 
ANY QUESTIONS EMAIL ME AT CKKAUTZ@YAHOO.COM


tabbed by:cameron
Tap to rate this tab
 
# A B C D E F G H I J K L M N O P Q R S T U V W X Y Z